PrimaNota.ru - самый крупный в мире бесплатный архив песенных текстов, аккордов, табулатур и нот


Def Leppard - Two Steps Behinde - таба, видео

Регистрация Запомнить меня
Войти через:  Facebook Google Twitter Vk Yandex Mail.ru

Def Leppard - Two Steps Behinde - таба, видео

Печатать
Просмотров: 134
e-------------------------------------------------|
b-------------------------------------------------|
g---7h9-99--999-9\7-77----------------------------|
d---------------------7-7h9-99-7-9-7-9/11-11-11---|
a-------------------------------------------------|
e-------------------------------------------------|

e-----10/12-12-12-12-12-12-12/10-10-10-9-9/10-10-10-10-10-10/9-9-9-----|
b-----12/14-14-14-14-14-14-14/12-12-12-10-9/12-12-12-12-12-12/10-10-10-|
g----------------------------------------------------------------------|
d----------------------------------------------------------------------|
a----------------------------------------------------------------------|
e----------------------------------------------------------------------|

e------------------------------------------------------------------------|
b---13b--13b--13b--1010-10------------------4/5-5-5-5\3-3-3-3\2-2-2-2----|
g-------------------------------------------5/6-6-6-6\4-4-4-4\2-2-2-2----|
d------------------------------------------------------------------------|
a---------------------------------2p0------------------------------------|
e--------------------------0-000-----------------------------------------|

e------------------------------------------------|
b--------------------10--10------10------12/14---|
g---777h9-99-11-9-11--------9-11----11-9---------|
d------------------------------------------------|
a------------------------------------------------|
e------------------------------------------------|
Добавлено: 24.03.2012
Другие материалы по этой песне:
  • Аккорды и текст

Страница создана 24.03.2012
http://primanota.ru/def-leppard/two-steps-behinde-chords.htm
Привет, Гость.
Предлагаем пройти революционный курс по гитаре.
Подарок от PrimaNota.Ru, забирай!