PrimaNota.ru - самый крупный в мире бесплатный архив песенных текстов, аккордов, табулатур и нот


Def Leppard - Smc - аккорды и текст, таба, видео

Регистрация Запомнить меня
Войти через:  Facebook Google Twitter Vk Yandex Mail.ru

Def Leppard - Smc - аккорды и текст, таба, видео

Печатать
Просмотров: 163
Smc
Def Leppard
		   "SMC" - DEF LEPPARD
       From the Instumental B-side of "Two Steps Behind"
                   Written By Phil Collen




Main Lick W/ fingers x 2

              ^ ^                    ^ ^
E|-2--3-5--7--5753--5-2---2--3-5--7--5753--5---|
B|---------------------------------------------|
G|---------------------------------------------|
D|-0--0-0--0----0---0-0---0--0-0--0----0-------|
A|---------------------------------------------|
E|---------------------------------------------|


               ^ ^
E|--2--3-5--7--5753--5-2-----------------------------------
B|---------------------------------------------------------
G|-------------------------------0--------0-------------(7)
D|--0--0-0--0---0----0-0-------0--------0-----------(7)----
A|---------------------------2------2-3-------3-5----------
E|---------------------------------------------------------

End of main lick


This part use pick
                               ^ ^                  ^ ^
E|-10''--8''--6''--5''--------------------------------------
B|------------------------6--8-6865-6--5--------------------
G|----------------------------------------7--6--7--9797-6-7-
D|----------------------------------------------------------
A|----------------------------------------------------------
E|----------------------------------------------------------


                                   ^ ^
E|10''--8''--6''--5''----------------------------------------
B|------------------------6-5-6-8--565-----------------------
G|---------------------------------------7-6-7-------7-7-----
D|----------------------------------------------7-7----------
A|-----------------------------------------------------------
E|-----------------------------------------------------------


Play this part over the part above, then play main lick once again.



E|-10-8-7--------10-8-7--------8-6-5-------8-6-5------|-6-4-3-------
B|--------10-8-7--------10-8-7-------8-6-5-------8-6-5|-------6-4-3-
G|----------------------------------------------------|---------------
D|----------------------------------------------------|---------------
A|----------------------------------------------------|---------------
E|----------------------------------------------------|---------------



E|-6-4-3-------5-3-2---------------|---------------------------------
B|-------6-4-3-------5-3-2-3vvvvvv-|---------------------------------
G|---------------------------------|---------------------------------
D|---------------------------------|---------------------------------
A|---------------------------------|---------------------------------
E|---------------------------------|---------------------------------




^ ^ = hammer on/ pull off
vvv = vibrato
''  = fast picking
(7) = natural harmonics



Note: This great short song was mostly tabbed by
"gsm16" gsm16@cycor.ca>. I only made a few minor adjustments to make
the tab sound more like the recording, and to FINALLY get it posted
to . I hope "gsm16" will post more Leppard.


S.Greencorn(s_greenc@bass.stmarys.ca)     
Добавлено: 11.08.2013
Другие материалы по этой песне:
  • Аккорды и текст

Страница создана 22.04.2012
http://primanota.ru/def-leppard/smc-chords.htm
Привет, Гость.
Предлагаем пройти революционный курс по гитаре.
Подарок от PrimaNota.Ru, забирай!