PrimaNota.ru - самый крупный в мире бесплатный архив песенных текстов, аккордов, табулатур и нот


Def Leppard - Desert Song - текст песни, таба, видео

Регистрация Запомнить меня
Войти через:  Facebook Google Twitter Vk Yandex Mail.ru

Def Leppard - Desert Song - текст песни, таба, видео

Печатать
Просмотров: 216
Song: Desert Song
Album: Retro Active (1993)
Artist: Def Leppard

Tuning: Standard (EADGBE)
///= slide


MAIN RIFF: (I'm quite sure this is accurate)

------------------------------------------------|
------------------------------------------------|
------------------------------------------------|
------------------------------------------------|
--3-------7-7-7////---7-7-7////-----7-7-7////---|
1---3-0-------------0-----------0-0-----------0-|

VERSE:

The verse is basically just E5 with a little lick.
Only bend the F note on the B string very slightly.

-------------------|
------------6b-8-5-|
9-9---9-9----------|
9-9---9-9----------|
7-7---7-7----------|
-------------------|

I haven't figured out the rest of the song yet.
But I hope you enjoy this tab!
Добавлено: 21.07.2012
Другие материалы по этой песне:

Страница создана 23.04.2012
http://primanota.ru/def-leppard/desert-song-chords.htm
Привет, Гость.
Предлагаем пройти революционный курс по гитаре.
Подарок от PrimaNota.Ru, забирай!