PrimaNota.ru - самый крупный в мире бесплатный архив песенных текстов, аккордов, табулатур и нот


Def Leppard - Cant Keep Away From - аккорды и текст, таба, видео

Регистрация Запомнить меня
Войти через:  Facebook Google Twitter Vk Yandex Mail.ru

Def Leppard - Cant Keep Away From - аккорды и текст, таба, видео

Печатать
Просмотров: 115
Cant Keep Away From
Def Leppard
		   Date sent:        Mon Nov.10 1997


Can't Keep Away from the Flame
From the Def Leppard album "Vault"


D CHORD              G CHORD            Em CHORD            C9 CHORD
-----2---------------------3------------------0-------------------3--------
-----3---------------------3------------------0-------------------3--------
-----2---------------------0------------------X-------------------0--------
-----0---------------------0------------------2-------------------2--------
---------------------------X------------------2-------------------3--------
---------------------------3------------------0----------------------





D CHORD              D CHORD
-----3----------------------0-----------------------------------------
-----3----------------------3-----------------------------------------
-----2----------------------2-----------------------------------------
-----0----------------------0-----------------------------------------
-----------------------------------------------------------------------
-----------------------------------------------------------------------



CHORUS   PLAY 3.5 times.....then end on D chord
-3--------3------------------5----------5--------------------------------
-----5--------5------5------------7----------7-------7-----------------
---------5--------5------5------------7-----------7-------7------------
---------------------------------------------------------------------------
----------------------------------------------------------------------------
----------------------------------------------------------------------




FILL 1  PLAY 3.6 TIMES......THEN END ON G CHORD
-----------3---------3---------5-----------3---------2-------------------
--------3--------3----------3-------3---------3----------3--------------
--0---------0--------0------------------0---------0----------------------
--0-------------------------------------------------------------------------
--2-------------------------------------------------------------------
--3-------------------------------------------------------------------




NOW....Heres what you do with all that:



(INTRO/VERSE LICK    PLAY 4 TIMES)
D D D DD GG G  GGD D D GG  GG G

(P.C LICK     PLAY 2 TIMES)
Em  EmEm  EmEmEmC9   C9C9 C9C9C9
D D   D D  D D  D D  D DD2

VERSE LICK PLAY 2 TIMES

P.C  LICK  PLAY 2 TIMES

CHORUS LICK

FILL 1 LICK

P.C LICK 2 TIMES

CHORUS

FILL 1 LICK...................The End



LYRICS:    (Verse with verse lick above)

           Lonely lonely lonely child
           Crystalline and lace
           Won't you walk with me a while
           Put a smile upon my face

           (Pre-chorus with P.C lick)

           I don't wanna take your love in vain
           Gonna keep on coming back again

           (Chorus with chorus lick)

           When I see you smilin'
           It takes away my pain
           Oh, there's no denyin'
           Can't keep away from the pain

           Verse 2

           Beauty leads the full grown child
           A rose among the thorns
           Like aray of sunshine
           She comes, heaven in my arms

           Repeat P.C or bridge

           Repeat Chorus


    Lyrics added by:    s_greenc@bass.stmarys.ca     
Добавлено: 10.11.2013
Другие материалы по этой песне:
  • Аккорды и текст

Страница создана 11.06.2013
http://primanota.ru/def-leppard/cant-keep-away-from-chords.htm
Привет, Гость.
Предлагаем пройти революционный курс по гитаре.
Подарок от PrimaNota.Ru, забирай!