PrimaNota.ru - самый крупный в мире бесплатный архив песенных текстов, аккордов, табулатур и нот


Def Leppard - Billys Got A Gun - текст песни, таба, видео

Регистрация Запомнить меня
Войти через:  Facebook Google Twitter Vk Yandex Mail.ru

Def Leppard - Billys Got A Gun - текст песни, таба, видео

Печатать
Просмотров: 193
Авторы: Pete Willis, Robert John “Mutt” Lange, Joe Elliott, Rick Savage, Steve Clark

Billy's got a gun from Def Leppard's 1983 album Pyromania.
Enjoy...


Intro(0-0:17)
                                          3X
e|----|-----------------------------------|
B|----|o---------------------------------o|
G|----|----5-5-5---3-3-3---1-1-1---3-3-3--|
D|----|----5-5-5---3-3-3---1-1-1---3-3-3--|
A|----|o-3-------3-------3-------3-------o|
E|----|-----------------------------------|

e|----------------------------------|
B|----------------------------------|
G|----5-5-5---3-3-3---1-1-1---3--5--|
D|----5-5-5---3-3-3---1-1-1---3--5--|
A|--3-------3-------3-------3-------|
E|----------------------------------|

Verse 1(0:18-0:48)

e|-------------------------------------------------------------|
B|-------------------------------------------------------------|
G|----------7h-8p-7p-5-----7h-8p-7p-5-5---7h-8p-7p-5-5---10-8--|
D|--5------------------8---------------------------------10-8--|
A|--3----------------------------------------------------------|
E|-------------------------------------------------------------|

e|-------------------------------------------------|
B|-------------------------------------------------|
G|--7h-8p-7p-5-----7h-8p-7p-5-5---7h-8p-7p-5-5-----|
D|-------------8-----------------------------------|
A|-------------------------------------------------|
E|-------------------------------------------------|

Chorus 1(0:49-1:07)

e|------------------------------------------------------------------|
B|------------------------------------------------------------------|
G|--------------------------------10-8------------------------------|
D|--------------------------------10-8------------------------------|
A|------3-5-6----------3-5-6-3--------------3-5-6----------3-5-6-3--|
E|--3-6-------4----3-6------------------3-6-------4----3-6----------|

Verse 2(1:08-1:40)

e|-------------------------------------------------------------|
B|-------------------------------------------------------------|
G|----------7h-8p-7p-5-----7h-8p-7p-5-5---7h-8p-7p-5-5---10-8--|
D|--5------------------8---------------------------------10-8--|
A|--3----------------------------------------------------------|
E|-------------------------------------------------------------|

e|-------------------------------------------------|
B|-------------------------------------------------|
G|--7h-8p-7p-5-----7h-8p-7p-5-5---7h-8p-7p-5-5-----|
D|-------------8-----------------------------------|
A|-------------------------------------------------|
E|-------------------------------------------------|

Chorus 2(1:41-1:59)

e|-------------------------------------------------------------------|
B|-------------------------------------------------------------------|
G|--------------------------------10-8-------------------------------|
D|--------------------------------10-8-------------------------------|
A|------3-5-6----------3-5-6-3--------------3-5-6----------3-5-6-3---|
E|--3-6-------4----3-6------------------3-6-------4----3-6-----------|

Bridge(2:00-2:20)

e|------------------------------------------------------------------------|
B|------------------------------------------------------------------------|
G|--5-5-7-3-5---------------------------5-5-7-3-5-------------------------|
D|--5-5-7-3-5---------------------------5-5-7-3-5-------------------------|
A|--3-3-5-1-3---7h-8p-7-8----7h-8p-7----3-3-5-1-3---7h-8p-7-8----7h-8p-7--|
E|------------------------------------------------------------------------|

Guitar Solo 1(2:21-2:38)

Gtr.2
e|-------------|----------------------------------|
B|-------------|--(13)b11--11--9b(11)--(11)b9-----|
G|-------------|----------------------------------|
D|-------------|----------------------------------|
A|-------------|----------------------------------|
E|-------------|----------------------------------|
 |Gtr.1        |
e|-------------|----------------------------------|
B|-------------|----------------------------------|
G|--5-5-7-3-8--|----5-5-5---3-3-3---1-1-1---3-3-3-|
D|--5-5-7-3-8--|----5-5-5---3-3-3---1-1-1---3-3-3-|
A|--3-3-5-1-6--|--3-------3-------3-------3-------|
E|-------------|----------------------------------|

e|-----------------------------------|---------------16b(18)--18---------|
B|--(13)b11--11--16b(18)--18---------|--(20)b18--18----------------------|
G|-----------------------------------|-----------------------------------|
D|-----------------------------------|-----------------------------------|
A|-----------------------------------|-----------------------------------|
E|-----------------------------------|-----------------------------------|
 |                                   |                                   |
e|-----------------------------------|-----------------------------------|
B|-----------------------------------|-----------------------------------|
G|----5-5-5---3-3-3---1-1-1---3-3-3--|----5-5-5---3-3-3---1-1-1---3-3-3--|
D|----5-5-5---3-3-3---1-1-1---3-3-3--|----5-5-5---3-3-3---1-1-1---3-3-3--|
A|--3-------3-------3-------3--------|--3-------3-------3-------3--------|
E|-----------------------------------|-----------------------------------|

e|--(20)b18--18--22b(24)--(24)b22----|
B|-----------------------------------|
G|-----------------------------------|
D|-----------------------------------|
A|-----------------------------------|
E|-----------------------------------|
 |                                   |
e|-----------------------------------|
B|-----------------------------------|
G|----5-5-5---3-3-3---1-1-1---3-3-3--|
D|----5-5-5---3-3-3---1-1-1---3-3-3--|
A|--3-------3-------3-------3--------|
E|-----------------------------------|

Verse 3(2:39-3:03)

e|--------------------------------------|
B|--------------------------------------|
G|---------------------10-8-------------|
D|-----------5---------10-8----------5--|
A|-----------3-----------------------3--|
E|--------------------------------------|

Chorus 3(3:04-3:22)

e|------------------------------------------------------------------|
B|------------------------------------------------------------------|
G|--------------------------------10-8------------------------------|
D|--------------------------------10-8------------------------------|
A|------3-5-6----------3-5-6-3--------------3-5-6----------3-5-6-3--|
E|--3-6-------4----3-6------------------3-6-------4----3-6----------|

Guitar Solo 2(3:23-4:17)

e|-------------|---------------------------------------------|
B|-------------|---------------------------------------------|
G|--5-5-7-3-5--|--10-12b(14)-12b(14)----9h-10p-9--9h-10p-9b--|
D|--5-5-7-3-5--|---------------------------------------------|
A|--3-3-5-1-3--|---------------------------------------------|
E|-------------|---------------------------------------------|

e|---------------------------13-15b(17)-17-17-17-15-13------|
B|---------------------13-15--------------------------------|
G|---------------12-14---------------------------------14\--|
D|---------12-15--------------------------------------------|
A|--14h-15--------------------------------------------------|
E|----------------------------------------------------------|

e|-------------------------------------------------------------------------|
B|--10-13-(15)b13p-12p-10-(15)b13p-12p-10-(15)b13p-12p-10-(15)b13p-12p-10--|
G|-------------------------------------------------------------------------|
D|-------------------------------------------------------------------------|
A|-------------------------------------------------------------------------|
E|-------------------------------------------------------------------------|

e|--------15b(17)-17-13--15b(17)-17-13--10\--|
B|--10-13------------------------------------|
G|-------------------------------------------|
D|-------------------------------------------|
A|-------------------------------------------|
E|-------------------------------------------|

e|--15-17-20b(22)-20b(22)-20b(22)-20-17--|
B|---------------------------------------|
G|---------------------------------------|
D|---------------------------------------|
A|---------------------------------------|
E|---------------------------------------|

e|--15-17p-15p-12-----------------------------|
B|----------------15--------------------------|
G|---------------------12-14-14-14-14-12-12\--|
D|--------------------------------------------|
A|--------------------------------------------|
E|--------------------------------------------|

e|-----------------------------------------------------------------|
B|-----------------------------------------------------------------|
G|------------------5-5-5-4--4-5-7-----------------5-5-5-4--4-5-7--|
D|---------5-----4--3-3-3-3--3-3-5--------5-----4--3-3-3-3--3-3-5--|
A|---------7-----3------------------------7-----3------------------|
E|--5--0-0---0-0----------------------0-0---0-0--------------------|

e|----------------------------------------------------------------|
B|----------------------------------------------------------------|
G|--5--------------------5-7-(9)b7p-5---7-5-----------7b(9)b7p-5--|
D|------------------------------------7-----7---------------------|
A|----------------------------------------------------------------|
E|----------------------------------------------------------------|
 |                                                                |
e|----------------------------------------------------------------|
B|----------------------------------------------------------------|
G|------5-----4--5-5-5-4--4-5-7-------5-----4--5-5-5-4--4-5-7-----|
D|------7-----3--3-3-3-3--3-3-5-------7-----3--3-3-3-3--3-3-5-----|
A|--0-0---0-0---------------------0-0---0-0-----------------------|
E|----------------------------------------------------------------|

e|-------------------------------------------------------------|
B|-------------------------------------------------------------|
G|--7b(9)-----7b(9)b7p-5-7-5------------5----------------------|
D|--------------------------------------------------5----------|
A|------------------------------5h-6h-7---------5-7------------|
E|------------------------------------------5-8----------------|
 |                                                             |
e|-------------------------------------------------------------|
B|-------------------------------------------------------------|
G|------5-----4--5-5-5-4--4-5-7-------5-----4--5-5-5-4--4-5-7--|
D|------7-----3--3-3-3-3--3-3-5-------7-----3--3-3-3-3--3-3-5--|
A|--0-0---0-0---------------------0-0---0-0--------------------|
E|-------------------------------------------------------------|

Bridge 2(4:18-4:37)

e|------------------------------------------------------------------------|
B|------------------------------------------------------------------------|
G|--5-5-7-3-5---------------------------5-5-7-3-5-------------------------|
D|--5-5-7-3-5---------------------------5-5-7-3-5-------------------------|
A|--3-3-5-1-3---7h-8p-7-8----7h-8p-7----3-3-5-1-3---7h-8p-7-8----7h-8p-7--|
E|------------------------------------------------------------------------|

Guitar Solo 3(4:38-4:59)

e|-----------|----------------------------------|
B|-----------|--(13)b11--11--9b(11)--(11)b9-----|
G|-----------|----------------------------------|
D|-----------|----------------------------------|
A|-----------|----------------------------------|
E|-----------|----------------------------------|
 |           |
e|-----------|----------------------------------|
B|-----------|----------------------------------|
G|--5-5-8----|----5-5-5---3-3-3---1-1-1---3-3-3-|
D|--5-5-8----|----5-5-5---3-3-3---1-1-1---3-3-3-|
A|--3-3-6----|--3-------3-------3-------3-------|
E|-----------|----------------------------------|

e|-----------------------------------|---------------16b(18)--18---------|
B|--(13)b11--11--16b(18)--18---------|--(20)b18--18----------------------|
G|-----------------------------------|-----------------------------------|
D|-----------------------------------|-----------------------------------|
A|-----------------------------------|-----------------------------------|
E|-----------------------------------|-----------------------------------|
 |                                   |                                   |
e|-----------------------------------|-----------------------------------|
B|-----------------------------------|-----------------------------------|
G|----5-5-5---3-3-3---1-1-1---3-3-3--|----5-5-5---3-3-3---1-1-1---3-3-3--|
D|----5-5-5---3-3-3---1-1-1---3-3-3--|----5-5-5---3-3-3---1-1-1---3-3-3--|
A|--3-------3-------3-------3--------|--3-------3-------3-------3--------|
E|-----------------------------------|-----------------------------------|

e|--(20)b18--18--22b(24)--(24)b22----|--22b(24)-24-24\---22-22-22\--|
B|-----------------------------------|------------------------------|
G|-----------------------------------|------------------------------|
D|-----------------------------------|------------------------------|
A|-----------------------------------|------------------------------|
E|-----------------------------------|------------------------------|
 |                                   |                              |
e|-----------------------------------|------------------------------|
B|-----------------------------------|------------------------------|
G|----5-5-5---3-3-3---1-1-1---3-3-3--|--5-5-5------------5-5-5------|
D|----5-5-5---3-3-3---1-1-1---3-3-3--|--5-5-5------------5-5-5------|
A|--3-------3-------3-------3--------|--3-3-3------------3-3-3------|
E|-----------------------------------|------------------------------|

Drum Solo(5:00-5:56)

===========Please rate and/or comment=================
Добавлено: 23.05.2012
Другие материалы по этой песне:

Страница создана 29.04.2012
http://primanota.ru/def-leppard/billys-got-a-gun-chords.htm
Привет, Гость.
Предлагаем пройти революционный курс по гитаре.
Подарок от PrimaNota.Ru, забирай!