PrimaNota.ru - самый крупный в мире бесплатный архив песенных текстов, аккордов, табулатур и нот


Def Leppard - Armaggedon it - таба, видео

Регистрация Запомнить меня
Войти через:  Facebook Google Twitter Vk Yandex Mail.ru

Def Leppard - Armaggedon it - таба, видео

Печатать
Просмотров: 163
Уроки эстрадного вокала в Санкт-Петербурге
Intro and main riff:

E|----------------------|------------------------|
H|--5--5--5--5--5----3--|----2--3--2--3--2-------| \
G|--4--4--4--4--4----2--|----2--2--2--2--2-------|  } x5
D|----------------------|------------------------| /
A|----------------------|------------------------|
E|----------------------|---------------------0--|


E|--0--0--0--0--0-------|-------------|
H|--5--5--5--5--5-------|--3----2-----|
G|--4--4--4--4--4-------|--2----2--2--|
D|----------------------|----------2--|
A|----------------------|-------------|
E|-------------------0--|-------------|


(verse)

E
Ya better come inside when you're ready to
D    A
But no chance if ya don't wanna dance
E
You like four letter words when you're ready to
D
But then you won't cause you know that you can
E (starting fill A)              D          A
You got it,                 but are you gettin' it?


(fill A)

E                      D5         A5               E5                     D5     Esus4
E|-------------------------|------------------------|-----0--------0----------|----------------|
H|-----5--------5----------|--3---------------------|-----5--------5----------|--3-------------|
G|-----4--------4----------|--2----------2----------|-----4--------4----------|--2------2-2----|
D|-----2--------2----------|--0----------2----------|-----2--------2----------|--0------2-2----|
A|-------------------------|-------------0----------|-------------------------|---------2-2-2--|
E|--0-----0--0-------0--0--|-------0--0-------0--0--|--0-----0--0-------0--0--|----------------|


E
You say that love is won when you get some
But then your finger won't trigger the gun
E5 - E5                E5 - E5
You know you can't stop it,      so don't rock it
You know you got it (play the little pre-chorus fill below)

E|--5--5--3--0--|
B|--5--5--3--0--|


(pre-chorus)

H
Hey, but are you gettin' it? (starting fill B)
Ooh, really gettin' it?
Come get it from me


(fill B - playing over pre-chorus)

H5                   E       H    E    H           H5             E       H    E    H
E|-----------------------0--|---------0-------------|-----------------0--|---------0------------|
H|-----------------------0--|----4----0----4----4-4-|-----------------0--|----4----0----4----4--|
G|--4-4---4--------------1--|----4----1----4----4-4-|--4--------------1--|----4----1----4----4--|
D|--4-4---4-----------------|----4---------4----4-4-|--4-----------------|----4---------4----4--|
A|--2-2---2-----------------|-----------------------|--2-----------------|----------------------|
E|--------------------------|-----------------------|--------------------|----------------------|


(chorus)

C    G           D
Gimme all of you lovin', every little bit
C    G             D
Gimme all that you got, every bit of it
C      G           D
Every bit of your lovin, oh, c'mon live a bit
C     G      D
Never wanna stop


(fill C - starting with the chorus and playing over C - G - D part of the chorus)

C           G        D              D/E               C           G        D
E|--------------------------|--------2-----------------|--------------------------|
H|--------3-----------3-----|-----3-----------3--------|--------3-----------3-----|
G|-----0-----0-----0--------|--2-----------2--------2--|-----0-----0-----0--------|
D|-----------------------0--|-----------2--------0-----|-----------------------0--|
A|--3-----------------------|--------------------------|--3-----------------------|
E|--------------3-----------|--------------------------|--------------3-----------|


D/A       E       C            G        D              D/E
E|--------------------------|--------------------------|--------2-----------------|
H|-----3--------3-----------|--------3-----------3-----|-----3-----------3--------|
G|--2-----2--------2-----0--|-----0-----0-----0--------|--2-----------2--------2--|
D|--------------------------|-----------------------0--|-----------2--------0-----|
A|-----------0--------2-----|--3-----------------------|--------------------------|
E|--------------------------|--------------3-----------|--------------------------|


C           G        D              D/A      E        E5
E|--------------------------|--------------------------|-----------|
H|--------3-----------3-----|-----3--------3-----------|-----------|
G|-----0-----0-----0--------|--2-----2--------2-----0--|-----------|
D|-----------------------0--|--------------------------|--2--2--2--|
A|--3-----------------------|-----------0--------2-----|--2--2--2--|
E|--------------3-----------|--------------------------|--0--0--0--|

E
Yeah, but are you gettin' it?
Armageddon it
Ooh, really gettin' it?
Yes armaggedon it
C'mon get it

(starting main riff)


(verse)

E
You try comin' on when you need some
D  A
But then you don't cause you already did
E                                       E5
Yeah, you jangle your jewels while your shakin' ya
D
And drive the pretty boys outta their heads
E (starting fill A)
You got it,                but are you gettin' it?

E
You flash your bedroom eyes like a jumpin' jack
Then play it pretty with a pat on the

E5 - E5                  E5 - E5
You know you ya can't stop it,       so don't rock it


You know you got it (play pre-chorus fill)


(pre-chorus)

H
Hey, but are you gettin' it? (starting fill B)
Ooh, really gettin' it?
Come get it from me


(chorus with the fill C)


C    G           D
Gimme all of you lovin', every little bit
C    G             D
Gimme all that you got, every bit of it
C      G           D
Every bit of your lovin, oh, c'mon live a bit
C     G      D
Never wanna stop

E
Yeah, but are you gettin' it?
Armageddon it
Ooh, really gettin' it?
Yes armaggedon it


C'mon Steve, get it


(fill before solo)

E|--4--4--4--4--4--4---|--5--5--5--4--------|---------------------------------|
H|--5--5--5--5--5--5---|--5--5--5--5--------|--5--5------5--5-----------------|
G|--4--4--4--4--4--4---|--4--4--4--4--------|--4--4------4--4----2-2-2--------|
D|--2--2--2--2--2--2---|--2--2--2--2--------|--2--2------2--2----2-2-2-----2--|
A|---------------------|--------------------|--------------------0-0-0-----2--|
E|---------------------|--------------------|---------------------------3--0--|


(solo-guitar)

E|-----------|--------------------------|--------------------------|
H|--5--5--5--|--5-----5--4--5--7-----5--|--5-----5--5--------5-----|
G|-----------|-----4--------------6-----|-----4-----------4--------|
D|-----------|--------------------------|--------------7--------5--|
A|-----------|--------------------------|--------------------------|
E|-----------|--------------------------|--------------------------|


E|-------------------------|---------------4--4--4--|
H|-------------------2-----|--2----4--5----5--5--5--|
G|-----1-----2----2-----2--|------------------------|
D|--2-----2----------------|------------------------|
A|-------------------------|------------------------|
E|-------------------------|------------------------|


E|--12p-11p-0h-11p-9p-0h-9p-7p-0h-7p-5p-0h-5p-4p0--|--5--7--5---------12--------|
H|-------------------------------------------------|----------10-9----12------5-|
G|-------------------------------------------------|------------------------4---|
D|-------------------------------------------------|----------------------------|
A|-------------------------------------------------|----------------------------|
E|-------------------------------------------------|----------------------------|


E|------------------4-----5----5----4-----|
H|-----5-----7-------------------------5--|
G|--4-----4-----4-4----4------------------|
D|----------------------------------------|
A|----------------------------------------|
E|----------------------------------------|


Take it, take it, take it from me
I got an itchy finger following me
Pull it, pull it, c'mon trigger the gun
Cause the best is yet to come

I say, cause the best is yet to come


(pre-chorus with the fill B)

H
Oh, are you gettin' it?
Oh, really gettin' it?
Yes, are you gettin' it?
Whooh, really gettin' it?
Come get it from me


(chorus - playing N times over C - G - D chords and fill C)


Gimme all of you lovin', every little bit
Gimme all that you got, every bit of it
Every bit of your lovin', oh come on live a bit
Never want it to stop, oh, are you getting it?
Gimme all of your lovin', ooh really gettin' it?
Gimme all that you got, oh are you getting it?


Gimme all of your lovin', oh live a bit
Gimme all that you got, whoa
Live a bit
You've got to live it


Gimme all of your lovin', ooh baby live it
Gimme all that you got, come on and give it
Every bit of your lovin', oh come on and give it
Never want it to stop, oh are you gettin' it?
Gimme all of your lovin', ooh really gettin' it?
Gimme all that you got, oh are you gettin' it?
very bit of your lovin', oh live a bit
Never want it to stop, whoa
Добавлено: 01.05.2012
Другие материалы по этой песне:
  • Аккорды и текст

Страница создана 01.05.2012
http://primanota.ru/def-leppard/armaggedon-it-chords.htm
Привет, Гость.
Предлагаем пройти революционный курс по гитаре.
Подарок от PrimaNota.Ru, забирай!