PrimaNota.ru - самый крупный в мире бесплатный архив песенных текстов, аккордов, табулатур и нот


Deez Nuts - Your Mother Shouldve Swallowed You - таба, видео

Регистрация Запомнить меня
Войти через:  Facebook Google Twitter Vk Yandex Mail.ru

Deez Nuts - Your Mother Shouldve Swallowed You - таба, видео

Печатать
Просмотров: 123
Song: Your Mother Should Of Swallowed You
Artist: Deez Nuts
Album: Stay True
Year: 2008




  Bass Intro:
D||-------|-------|-------|-------|-------|-------|-------|-------|
A||-------|-------|-------|-------|-------|-------|-------|-------|
F||-------|-------|-------|-------|-------|-------|-------|-------|
C||-------|-------|-------|-------|-------|-------|-------|-------|
G||-------|-------|-------|-------|-------|-------|-------|-------|
C||-------|-------|-------|-------|-------|-------|-------|-------|




        Verse:
                              PM PM PM PM PM PM PM PM PM PM PM PM PM    
------------------------|----------------------------------------------|
------------------------|----------------------------------------------|
------------------------|----------------------------------------------|
-----------------5------|----------------------------------------------|
-----------0-1---3--0-0-|--L--0--0--0--0--0--0--0--0--0--0--0--0--0--0-|
-----------0-1------0-0-|--L--0--0--0--0--0--0--0--0--0--0--0--0--0--0-|


     PM PM PM PM PM PM               
------------------------------------|
------------------------------------|
------------------------------------|
-----------------------------5------|
--L--0--0--0--0--0--0--0-1---3--0-0-|
--L--0--0--0--0--0--0--0-1------0-0-|


     PM PM PM PM PM PM PM PM PM PM PM PM PM    
----------------------------------------------|
----------------------------------------------|
----------------------------------------------|
----------------------------------------------|
--L--0--0--0--0--0--0--0--0--0--0--0--0--0--0-|
--L--0--0--0--0--0--0--0--0--0--0--0--0--0--0-|


     PM PM PM PM PM PM          PM                                  
-------------------------------------|---------------------------|
-------------------------------------|---------------------------|
-------------------------------------|---------------------------|
-----------------------------5-------|---------------------------|
--L--0--0--0--0--0--0--0-1---3--0--4-|--L--4--4--4--4--4--4--4-3-|
--L--0--0--0--0--0--0--0-1------0--4-|--L--4--4--4--4--4--4--4-3-|


                                 PM PM PM PM PM PM PM PM PM PM PM PM PM PM  
---------------------------|-----------------------------------------------|
---------------------------|-----------------------------------------------|
---------------------------|-----------------------------------------------|
--------------------5------|-----------------------------------------------|
--L--3--3--3--0-1---3--0-0-|--L--0--0--0--0--0--0--0--0--0--0--0--0--0--0--|
--L--3--3--3--0-1------0-0-|--L--0--0--0--0--0--0--0--0--0--0--0--0--0--0--|


  PM PM PM PM PM PM PM PM PM PM PM PM PM PM PM PM  
--------------------------------------------------|
--------------------------------------------------|
--------------------------------------------------|
--------------------------------------------------|
--0--0--0--0--0--0--0--0--0--0--0--0--0--0--0--0--|
--0--0--0--0--0--0--0--0--0--0--0--0--0--0--0--0--|


  PM PM PM PM PM PM PM PM PM PM PM PM PM PM PM PM  
--------------------------------------------------|
--------------------------------------------------|
--------------------------------------------------|
--------------------------------------------------|
--0--0--0--0--0--0--0--0--1--1--1--1--1--1--1--1--|
--0--0--0--0--0--0--0--0--1--1--1--1--1--1--1--1--|


  PM PM PM PM PM PM PM PM PM PM PM PM PM PM PM PM     
--------------------------------------------------|
--------------------------------------------------|
--------------------------------------------------|
--------------------------------------------------|
--3--3--3--3--3--3--3--3--4--4--4--4--4--4--4--4--|
--3--3--3--3--3--3--3--3--4--4--4--4--4--4--4--4--|


  PM PM PM PM PM PM PM PM PM PM PM PM PM PM PM PM  
--------------------------------------------------|
--------------------------------------------------|
--------------------------------------------------|
--------------------------------------------------|
--0--0--0--0--0--0--0--0--1--1--1--1--1--1--1--1--|
--0--0--0--0--0--0--0--0--1--1--1--1--1--1--1--1--|


  PM PM PM PM PM PM PM PM PM PM PM PM PM PM PM PM     
--------------------------------------------------|
--------------------------------------------------|
--------------------------------------------------|
--------------------------------------------------|
--3--3--3--3--3--3--3--3--4--4--4--4--4--4--4--4--|
--3--3--3--3--3--3--3--3--4--4--4--4--4--4--4--4--|




Pre Chorus:
------------------------------|------------------------------|
------------------------------|------------------------------|
------------------------------|------------------------------|
------------------------------|------------------------------|
--0-0--0-0-0--0-1-1--1-1-1--1-|--3-3--3-3-3--3-4-4--4-4-4--4-|
--0-0--0-0-0--0-1-1--1-1-1--1-|--3-3--3-3-3--3-4-4--4-4-4--4-|


------------------------------|-----------------------------|
------------------------------|-----------------------------|
------------------------------|-----------------------------|
------------------------------|----------------------5------|
--0-0--0-0-0--0-1-1--1-1-1--1-|--3-3--3-3-3--3-0-1---3--0-0-|
--0-0--0-0-0--0-1-1--1-1-1--1-|--3-3--3-3-3--3-0-1------0-0-|




Chours:
-------------------|------------------------|-------------------|
-------------------|------------------------|-------------------|
-------------------|------------------------|-------------------|
-------------------|-----------------5------|-------------------|
--L----------------|--L--------0-1---3--0-0-|--L----------------|
--L----------------|--L--------0-1------0-0-|--L----------------|


                              PM PM PM PM PM PM PM    
------------------------|----------------------------|
------------------------|----------------------------|
------------------------|----------------------------|
-----------------5------|----------------------------|
--L--------0-1---3--0-4-|--L--4--4--4--4--4--4--4--3-|
--L--------0-1------0-4-|--L--4--4--4--4--4--4--4--3-|


     PM PM PM                                                            
---------------------------|-------------------|------------------------|
---------------------------|-------------------|------------------------|
---------------------------|-------------------|------------------------|
--------------------5------|-------------------|-----------------5------|
--L--3--3--3--0-1---3--0-0-|--L----------------|--L--------0-1---3--0-0-|
--L--3--3--3--0-1------0-0-|--L----------------|--L--------0-1------0-0-|




Verse:
     PM PM PM PM PM PM PM PM PM PM PM PM PM    
----------------------------------------------|
----------------------------------------------|
----------------------------------------------|
----------------------------------------------|
--L--0--0--0--0--0--0--0--0--0--0--0--0--0--0-|
--L--0--0--0--0--0--0--0--0--0--0--0--0--0--0-|


     PM PM PM PM PM PM                 
------------------------------------|
------------------------------------|
------------------------------------|
-----------------------------5------|
--L--0--0--0--0--0--0--0-1---3--0-0-|
--L--0--0--0--0--0--0--0-1------0-0-|


     PM PM PM PM PM PM PM PM PM PM PM PM PM    
----------------------------------------------|
----------------------------------------------|
----------------------------------------------|
----------------------------------------------|
--L--0--0--0--0--0--0--0--0--0--0--0--0--0--0-|
--L--0--0--0--0--0--0--0--0--0--0--0--0--0--0-|


     PM PM PM PM PM PM          PM                                
-------------------------------------|---------------------------|
-------------------------------------|---------------------------|
-------------------------------------|---------------------------|
-----------------------------5-------|---------------------------|
--L--0--0--0--0--0--0--0-1---3--0--4-|--L--4--4--4--4--4--4--4-3-|
--L--0--0--0--0--0--0--0-1------0--4-|--L--4--4--4--4--4--4--4-3-|


                                 PM PM PM PM PM PM PM PM PM PM PM PM PM    
---------------------------|----------------------------------------------|
---------------------------|----------------------------------------------|
---------------------------|----------------------------------------------|
--------------------5------|----------------------------------------------|
--L--3--3--3--0-1---3--0-0-|--L--0--0--0--0--0--0--0--0--0--0--0--0--0--0-|
--L--3--3--3--0-1------0-0-|--L--0--0--0--0--0--0--0--0--0--0--0--0--0--0-|


     PM PM PM PM PM PM PM PM PM PM PM PM PM PM  
-----------------------------------------------|
-----------------------------------------------|
-----------------------------------------------|
-----------------------------------------------|
--L--0--0--0--0--0--0--0--0--0--0--0--0--0--0--|
--L--0--0--0--0--0--0--0--0--0--0--0--0--0--0--|


     PM PM PM PM PM PM PM PM PM PM PM PM PM      
----------------------------------------------|
----------------------------------------------|
----------------------------------------------|
----------------------------------------------|
--0--0--0--0--0--0--0--0--0--0--0--0--0--0--0-|
--0--0--0--0--0--0--0--0--0--0--0--0--0--0--0-|


     PM PM PM PM PM PM          PM    
-------------------------------------|
-------------------------------------|
-------------------------------------|
-----------------------------5-------|
--L--0--0--0--0--0--0--0-1---3--0--0-|
--L--0--0--0--0--0--0--0-1------0--0-|


     PM PM PM PM PM PM PM PM PM PM PM PM PM    
----------------------------------------------|
----------------------------------------------|
----------------------------------------------|
----------------------------------------------|
--L--0--0--0--0--0--0--0--0--0--0--0--0--0--0-|
--L--0--0--0--0--0--0--0--0--0--0--0--0--0--0-|


     PM PM PM PM PM PM          PM                                  
-------------------------------------|---------------------------|
-------------------------------------|---------------------------|
-------------------------------------|---------------------------|
-----------------------------5-------|---------------------------|
--L--0--0--0--0--0--0--0-1---3--0--4-|--L--4--4--4--4--4--4--4-3-|
--L--0--0--0--0--0--0--0-1------0--4-|--L--4--4--4--4--4--4--4-3-|


                                 PM PM PM PM PM PM PM PM PM PM PM PM PM PM     
---------------------------|-----------------------------------------------|
---------------------------|-----------------------------------------------|
---------------------------|-----------------------------------------------|
--------------------5------|-----------------------------------------------|
--L--3--3--3--0-1---3--0-0-|--L--0--0--0--0--0--0--0--0--0--0--0--0--0--0--|
--L--3--3--3--0-1------0-0-|--L--0--0--0--0--0--0--0--0--0--0--0--0--0--0--|


  PM PM PM PM PM PM PM PM PM PM PM PM PM PM PM PM     
--------------------------------------------------|
--------------------------------------------------|
--------------------------------------------------|
--------------------------------------------------|
--0--0--0--0--0--0--0--0--0--0--0--0--0--0--0--0--|
--0--0--0--0--0--0--0--0--0--0--0--0--0--0--0--0--|


  PM PM PM PM PM PM PM PM PM PM PM PM PM PM PM PM  
--------------------------------------------------|
--------------------------------------------------|
--------------------------------------------------|
--------------------------------------------------|
--0--0--0--0--0--0--0--0--1--1--1--1--1--1--1--1--|
--0--0--0--0--0--0--0--0--1--1--1--1--1--1--1--1--|


  PM PM PM PM PM PM PM PM PM PM PM PM PM PM PM PM  
--------------------------------------------------|
--------------------------------------------------|
--------------------------------------------------|
--------------------------------------------------|
--3--3--3--3--3--3--3--3--4--4--4--4--4--4--4--4--|
--3--3--3--3--3--3--3--3--4--4--4--4--4--4--4--4--|


  PM PM PM PM PM PM PM PM PM PM PM PM PM PM PM PM  
--------------------------------------------------|
--------------------------------------------------|
--------------------------------------------------|
--------------------------------------------------|
--0--0--0--0--0--0--0--0--1--1--1--1--1--1--1--1--|
--0--0--0--0--0--0--0--0--1--1--1--1--1--1--1--1--|


  PM PM PM PM PM PM PM PM PM PM PM PM PM PM PM PM  
--------------------------------------------------|
--------------------------------------------------|
--------------------------------------------------|
--------------------------------------------------|
--3--3--3--3--3--3--3--3--4--4--4--4--4--4--4--4--|
--3--3--3--3--3--3--3--3--4--4--4--4--4--4--4--4--|

  
------------------------------|------------------------------|
------------------------------|------------------------------|
------------------------------|------------------------------|
------------------------------|------------------------------|
--0-0--0-0-0--0-1-1--1-1-1--1-|--3-3--3-3-3--3-4-4--4-4-4--4-|
--0-0--0-0-0--0-1-1--1-1-1--1-|--3-3--3-3-3--3-4-4--4-4-4--4-|

  
------------------------------|-----------------------------|
------------------------------|-----------------------------|
------------------------------|-----------------------------|
------------------------------|----------------------5------|
--0-0--0-0-0--0-1-1--1-1-1--1-|--3-3--3-3-3--3-0-1---3--0-0-|
--0-0--0-0-0--0-1-1--1-1-1--1-|--3-3--3-3-3--3-0-1------0-0-|




 Pre Chorus:                
-------------------|------------------------|-------------------|
-------------------|------------------------|-------------------|
-------------------|------------------------|-------------------|
-------------------|-----------------5------|-------------------|
--L----------------|--L--------0-1---3--0-0-|--L----------------|
--L----------------|--L--------0-1------0-0-|--L----------------|


                              PM PM PM PM PM PM PM    
------------------------|----------------------------|
------------------------|----------------------------|
------------------------|----------------------------|
-----------------5------|----------------------------|
--L--------0-1---3--0-4-|--L--4--4--4--4--4--4--4--3-|
--L--------0-1------0-4-|--L--4--4--4--4--4--4--4--3-|


     PM PM PM                                                        
---------------------------|-------------------|--------------------|
---------------------------|-------------------|--------------------|
---------------------------|-------------------|--------------------|
--------------------5------|-------------------|--------------------|
--L--3--3--3--0-1---3--0-0-|--L----------------|--L-----------------|
--L--3--3--3--0-1------0-0-|--L----------------|--L-----------------|




Breakdown:
  PM PM PM PM PM PM PM PM PM PM PM PM PM PM PM PM  
--------------------------------------------------|
--------------------------------------------------|
--------------------------------------------------|
--------------------------------------------------|
--0--0--0--0--0--0--0--0--1--1--1--1--1--1--1--1--|
--0--0--0--0--0--0--0--0--1--1--1--1--1--1--1--1--|


  PM PM PM PM PM PM PM PM PM PM PM PM PM PM PM PM  
--------------------------------------------------|
--------------------------------------------------|
--------------------------------------------------|
--------------------------------------------------|
--3--3--3--3--3--3--3--3--4--4--4--4--4--4--4--4--|
--3--3--3--3--3--3--3--3--4--4--4--4--4--4--4--4--|


  PM PM PM PM PM PM PM PM PM PM PM PM PM PM PM PM  
--------------------------------------------------|
--------------------------------------------------|
--------------------------------------------------|
--------------------------------------------------|
--0--0--0--0--0--0--0--0--1--1--1--1--1--1--1--1--|
--0--0--0--0--0--0--0--0--1--1--1--1--1--1--1--1--|





  PM PM PM PM PM PM PM PM              Bridge/Outro:                    
--------------------------------------|-------------------|
--------------------------------------|-------------------|
--------------------------------------|-------------------|
--------------------------------------|-------------------|
--3--3--3--3--3--3--3--3--0--1--3--4--|--0----------------|
--3--3--3--3--3--3--3--3--0--1--3--4--|--0----------------|


-----------------------|-------------------|-----------------------|
-----------------------|-------------------|-----------------------|
-----------------------|-------------------|-----------------------|
-----------------------|-------------------|-----------------------|
--L--------0--1--4--3--|--0----------------|--L--------0--1--3--4--|
--L--------0--1--4--3--|--0----------------|--L--------0--1--3--4--|


-------------------|-----------------------|---------------------|
-------------------|-----------------------|---------------------|
-------------------|-----------------------|---------------------|
-------------------|-----------------------|---------------------|
--0----------------|--L--------0--1--4--3--|--0------------------|
--0----------------|--L--------0--1--4--3--|--0------------------|


-----------------------|--------------------|-----------------------|
-----------------------|--------------------|-----------------------|
-----------------------|--------------------|-----------------------|
-----------------------|--------------------|-----------------------|
-----------0--1--3--4--|--0--------4--------|--L--------0--1--4--3--|
-----------0--1--3--4--|--0--------4--------|--L--------0--1--4--3--|

         
--------------------|-----------------------|--------------------|
--------------------|-----------------------|--------------------|
--------------------|-----------------------|--------------------|
--------------------|-----------------------|--------------------|
--0--------3--------|--L--------0--1--3--4--|--0--------4--------|
--0--------3--------|--L--------0--1--3--4--|--0--------4--------|


-----------------------|--------------------|-----------------------|
-----------------------|--------------------|-----------------------|
-----------------------|--------------------|-----------------------|
-----------------------|--------------------|-----------------------|
--L--------0--1--4--3--|--0--------3--------|--L--------0--1--3--4--|
--L--------0--1--4--3--|--0--------3--------|--L--------0--1--3--4--|

         
--------------------|-----------------------|--------------------|
--------------------|-----------------------|--------------------|
--------------------|-----------------------|--------------------|
--------------------|-----------------------|--------------------|
--0--------4--------|--L--------0--1--4--3--|--0--------3--------|
--0--------4--------|--L--------0--1--4--3--|--0--------3--------|


-----------------------|--------------------|-----------------------|
-----------------------|--------------------|-----------------------|
-----------------------|--------------------|-----------------------|
-----------------------|--------------------|-----------------------|
--L--------0--1--3--4--|--0--------4--------|--L--------0--1--4--3--|
--L--------0--1--3--4--|--0--------4--------|--L--------0--1--4--3--|


--------------------|-----------------------|---------------------||
--------------------|-----------------------|---------------------||
--------------------|-----------------------|---------------------||
--------------------|-----------------------|---------------------||
--0--------3--------|--L--------0--1--3--4--|--0------------------||
--0--------3--------|--L--------0--1--3--4--|--0------------------||






Tablature Legend
----------------
L - tied note
x - dead note
> - accentuded note
NH - natural harmonic
PH - pitch harmonic
h - hammer on
p - pull off
b - bend
br - bendRelease

Добавлено: 07.06.2012
Другие материалы по этой песне:

Страница создана 04.06.2012
http://primanota.ru/deez-nuts/your-mother-shouldve-swallowed-you-chords.htm
Привет, Гость.
Предлагаем пройти революционный курс по гитаре.
Подарок от PrimaNota.Ru, забирай!