PrimaNota.ru - самый крупный в мире бесплатный архив песенных текстов, аккордов, табулатур и нот


Deez Nuts - Stay True - текст песни, таба, видео

Регистрация Запомнить меня
Войти через:  Facebook Google Twitter Vk Yandex Mail.ru

Deez Nuts - Stay True - текст песни, таба, видео

Печатать
Просмотров: 397
***STAY TRUE - DEEZ NUTS***

Dropped C tuning, C-G-C-F-A-D

Tabbed originally by Drapte... Drapte_75@hotmail.com for questions

Main Riff And Intro is palm muted

D--------------------------------------------------------------|
A--------------------------------------------------------------|
F--------------------------------------------------------------|
C-8-8-8-8-8-8-5-7-5~~0~~~~-0-0-0-0-0-0-0-0-0-0-0-0~~~~~5-7-5---|
G-8-8-8-8-8-8-5-7-5~~0~~~~-0-0-0-0-0-0-0-0-0-0-0-0~~~~~5-7-5---|
C-8-8-8-8-8-8-5-7-5~~0~~~~-0-0-0-0-0-0-0-0-0-0-0-0~~~~~5-7-5---|
			   ========Palm Mute======


Before Bass Solo
D---------------------------------------------------------------|
A---------------------------------------------------------------|
F---------------------------------------------------------------|
C-8~~~~~3~~~~~~6~~~~~1~~~~~0--3-3-3--0--------------------------|~~~~~~~~~~~~~~~~~To Fade
G-8~~~~~3~~~~~~6~~~~~1~~~~~0--3-3-3--0--------------------------|~~~~~~~~~~~~~~~~~To Fade
C-8~~~~~3~~~~~~6~~~~~1~~~~~0--3-3-3--0--------------------------|~~~~~~~~~~~~~~~~~To Fade


Bass Does this on one string during solo and guitars come back
into this riff after solo on all 3 strings
D--------------------------------------------------------------|
A--------------------------------------------------------------|
F--------------------------------------------------------------|
C-0~~~0-0-0-3-3-3-6-6-6-6-0--0-0-8-8-8-8-8-3-3-3-0-------------|
G-0~~~0-0-0-3-3-3-6-6-6-6-0--0-0-8-8-8-8-8-3-3-3-0-------------|
C-0~~~0-0-0-3-3-3-6-6-6-6-0--0-0-8-8-8-8-8-3-3-3-0-------------|


I Make music for the ones who stay true
D--------------------------------------------------------------|
A--------------------------------------------------------------|
F--------------------------------------------------------------|
C-0~~~~~~~~~~~~~~~~~~~~~~~~~~~~~~~~~~~~~~~~~~~~~~~~~~~~~To Fade
G-0~~~~~~~~~~~~~~~~~~~~~~~~~~~~~~~~~~~~~~~~~~~~~~~~~~~~~To Fade
C-0~~~~~~~~~~~~~~~~~~~~~~~~~~~~~~~~~~~~~~~~~~~~~~~~~~~~~To Fade


Back Into Main Riff
D--------------------------------------------------------------|
A--------------------------------------------------------------|
F--------------------------------------------------------------|
C-8-8-8-8-8-8-5-7-5~~0~~~~-0-0-0-0-0-0-0-0-0-0-0-0~~~~~5-7-5---|
G-8-8-8-8-8-8-5-7-5~~0~~~~-0-0-0-0-0-0-0-0-0-0-0-0~~~~~5-7-5---|
C-8-8-8-8-8-8-5-7-5~~0~~~~-0-0-0-0-0-0-0-0-0-0-0-0~~~~~5-7-5---|
			   ========Palm Mute======
Добавлено: 04.03.2012
Другие материалы по этой песне:

Страница создана 22.02.2012
http://primanota.ru/deez-nuts/stay-true-chords.htm
Привет, Гость.
Предлагаем пройти революционный курс по гитаре.
Подарок от PrimaNota.Ru, забирай!