PrimaNota.ru - самый крупный в мире бесплатный архив песенных текстов, аккордов, табулатур и нот


Deez Nuts - Never Grow Up - текст песни, таба, видео

Регистрация Запомнить меня
Войти через:  Facebook Google Twitter Vk Yandex Mail.ru

Deez Nuts - Never Grow Up - текст песни, таба, видео

Печатать
Просмотров: 145
Song: Never Grow Up
Artist: Deez Nuts
Album: Stay True
Year: 2009



Intro:
D||------------------------------|------------------------------|
A||------------------------------|------------------------------|
F||------------------------------|------------------------------|
C||----------------5-5--5-5-5--5-|------------------------------|
G||--0-0--0-0-0--0-3-3--3-3-3--3-|--3-3--3-3-3--3-3-3--3-3-1--1-|
C||--0-0--0-0-0--0---------------|--3-3--3-3-3--3-3-3--3-3-1--1-|


------------------------------|---------------------|--------------------|
------------------------------|---------------------|--------------------|
------------------------------|---------------------|--------------------|
----------------5-5--5-5-5--5-|---------------------|--------------------|
--0-0--0-0-0--0-3-3--3-3-3--3-|--6--------5----3----|--0--------0--------|
--0-0--0-0-0--0---------------|--6--------5----3----|--0--------0--------|




        Verse:
              PM PM          PM         PM                                      
--------------------------|------------------------|------------------------|
--------------------------|------------------------|------------------------|
--------------------------|------------------------|------------------------|
-----------5--------8-----|------------------------|--5--5----5--5--5----5--|
--0--------3--0--0--6-----|--0--0----0--0--0----0--|--3--3----3--3--3----3--|
--0-----------0--0--------|--0--0----0--0--0----0--|------------------------|


------------------------|------------------------|------------------------|
------------------------|------------------------|------------------------|
------------------------|------------------------|------------------------|
------------------------|------------------------|------------------------|
--3--3----3--3--3----3--|--3--3----3--3--1----1--|--0--0----0--0--0----0--|
--3--3----3--3--3----3--|--3--3----3--3--1----1--|--0--0----0--0--0----0--|


                                             PM PM                           
------------------------|--------------------------|------------------------|
------------------------|--------------------------|------------------------|
------------------------|--------------------------|------------------------|
--5--5----5--5--5----5--|--------------------------|------------------------|
--3--3----3--3--3----3--|--6--6--6--6--6--6--6--6--|--5--5----5--3--3----3--|
------------------------|--6--6--6--6--6--6--6--6--|--5--5----5--3--3----3--|


  PM         PM                                                            
------------------------|------------------------|------------------------|
------------------------|------------------------|------------------------|
------------------------|------------------------|------------------------|
------------------------|--5--5----5--5--5----5--|------------------------|
--0--0----0--0--0----0--|--3--3----3--3--3----3--|--3--3----3--3--3----3--|
--0--0----0--0--0----0--|------------------------|--3--3----3--3--3----3--|


------------------------|------------------------|------------------------|
------------------------|------------------------|------------------------|
------------------------|------------------------|------------------------|
------------------------|------------------------|--5--5----5--5--5----5--|
--3--3----3--3--1----1--|--0--0----0--0--0----0--|--3--3----3--3--3----3--|
--3--3----3--3--1----1--|--0--0----0--0--0----0--|------------------------|


                    PM PM                                               PM PM  
--------------------------|------------------------|--------------------------|
--------------------------|------------------------|--------------------------|
--------------------------|------------------------|--------------------------|
--------------------------|------------------------|--------------------------|
--6--6--6--6--6--6--6--6--|--5--5----5--3--3----3--|--6--6--6--6--6--6--6--6--|
--6--6--6--6--6--6--6--6--|--5--5----5--3--3----3--|--6--6--6--6--6--6--6--6--|


                                             PM PM                           
------------------------|--------------------------|------------------------|
------------------------|--------------------------|------------------------|
------------------------|--------------------------|------------------------|
------------------------|--------------------------|------------------------|
--5--5----5--3--3----3--|--6--6--6--6--6--6--6--6--|--5--5----5--3--3----3--|
--5--5----5--3--3----3--|--6--6--6--6--6--6--6--6--|--5--5----5--3--3----3--|

    


Pre Chorus:                              PM                                             
-------------------|-----------------------|-------------------|
-------------------|-----------------------|-------------------|
-------------------|-----------------------|-------------------|
-------------------|-----------------5--7--|--L----------------|
--0----------------|--L--------L--0--3--5--|--L----------------|
--0----------------|--L--------L--0--------|-------------------|


              PM                                          PM           
-----------------------|-------------------|-----------------------|
-----------------------|-------------------|-----------------------|
-----------------------|-------------------|-----------------------|
--L--------L-----------|-------------------|-----------------------|
--L--------L--0--5--7--|--L----------------|--L--------L--0--7--6--|
--------------0--5--7--|--L----------------|--L--------L--0--7--6--|


                                  PM                                   
-------------------|-----------------------|--------------------------|
-------------------|-----------------------|--------------------------|
-------------------|-----------------------|--------------------------|
-------------------|-----------------------|--------------------------|
--L----------------|--L--------L--0--6--5--|--L--5--5--5--5--5--5--3--|
--L----------------|--L--------L--0--6--5--|--L--5--5--5--5--5--5--3--|


                 PM                                          PM           
--------------------------|-------------------|-----------------------|
--------------------------|-------------------|-----------------------|
--------------------------|-------------------|-----------------------|
--------------------5--7--|--L----------------|--L--------L-----------|
--L--3--3--3--3--0--3--5--|--L----------------|--L--------L--0--5--7--|
--L--3--3--3--3--0--------|-------------------|--------------0--5--7--|


                                  PM                            
-------------------|-----------------------|-------------------|
-------------------|-----------------------|-------------------|
-------------------|-----------------------|-------------------|
-------------------|-----------------------|-------------------|
--L----------------|--L--------L--0--7--6--|--L----------------|
--L----------------|--L--------L--0--7--6--|--L----------------|


              PM                                                    PM        
-----------------------|--------------------------|--------------------------|
-----------------------|--------------------------|--------------------------|
-----------------------|--------------------------|--------------------------|
-----------------------|--------------------------|--------------------5--7--|
--L--------L--0--6--5--|--L--5--5--5--5--5--5--3--|--L--3--3--3--3--0--3--5--|
--L--------L--0--6--5--|--L--5--5--5--5--5--5--3--|--L--3--3--3--3--0--------|




Chorus:
--------------------------|--------------------------|
--------------------------|--------------------------|
--------------------------|--------------------------|
--L--7--7--7--7--7--7--7--|--7--7--7--7--7--7--------|
--L--5--5--5--5--5--5--5--|--5--5--5--5--5--5--5--7--|
--------------------------|--------------------5--7--|


--------------------------|--------------------------|
--------------------------|--------------------------|
--------------------------|--------------------------|
--------------------------|--------------------------|
--L--7--7--7--7--7--7--7--|--7--7--7--7--7--7--7--6--|
--L--7--7--7--7--7--7--7--|--7--7--7--7--7--7--7--6--|


--------------------------|--------------------------|
--------------------------|--------------------------|
--------------------------|--------------------------|
--------------------------|--------------------------|
--L--6--6--6--6--6--6--6--|--6--6--6--6--6--6--6--5--|
--L--6--6--6--6--6--6--6--|--6--6--6--6--6--6--6--5--|


--------------------------|--------------------------|
--------------------------|--------------------------|
--------------------------|--------------------------|
--------------------------|--------------------5--7--|
--L--5--5--5--5--5--5--3--|--L--3--3--3--3--3--3--5--|
--L--5--5--5--5--5--5--3--|--L--3--3--3--3--3--------|


                                            PM        
--------------------------|--------------------------|
--------------------------|--------------------------|
--------------------------|--------------------------|
--L--7--7--7--7--7--7--7--|--7--7--7--7--7-----------|
--L--5--5--5--5--5--5--5--|--5--5--5--5--5--0--5--7--|
--------------------------|-----------------0--5--7--|

   
--------------------------|--------------------------|
--------------------------|--------------------------|
--------------------------|--------------------------|
--------------------------|--------------------------|
--L--7--7--7--7--7--7--7--|--7--7--7--7--7--7--7--6--|
--L--7--7--7--7--7--7--7--|--7--7--7--7--7--7--7--6--|


--------------------------|--------------------------|
--------------------------|--------------------------|
--------------------------|--------------------------|
--------------------------|--------------------------|
--L--6--6--6--6--6--6--6--|--6--6--6--6--6--6--6--5--|
--L--6--6--6--6--6--6--6--|--6--6--6--6--6--6--6--5--|

                 
--------------------------|--------------------------|-------------------|
--------------------------|--------------------------|-------------------|
--------------------------|--------------------------|-------------------|
--------------------------|--------------------------|-------------------|
--L--5--5--5--5--5--5--3--|--L--3--3--3--3--3--3--0--|--L----------------|
--L--5--5--5--5--5--5--3--|--L--3--3--3--3--3--3--0--|--L----------------|


                                              PM  PM            
-------------------|-------------------|-----------------------|
-------------------|-------------------|-----------------------|
-------------------|-------------------|-----------------------|
-------------------|-------------------|--5----------8---------|
--0----------------|--0----------------|--3---0---0--6---------|
--0----------------|--0----------------|------0---0------------|




Verse:
  PM         PM                                                            
------------------------|------------------------|------------------------|
------------------------|------------------------|------------------------|
------------------------|------------------------|------------------------|
------------------------|--5--5----5--5--5----5--|------------------------|
--0--0----0--0--0----0--|--3--3----3--3--3----3--|--3--3----3--3--3----3--|
--0--0----0--0--0----0--|------------------------|--3--3----3--3--3----3--|


------------------------|------------------------|------------------------|
------------------------|------------------------|------------------------|
------------------------|------------------------|------------------------|
------------------------|------------------------|--5--5----5--5--5----5--|
--3--3----3--3--1----1--|--0--0----0--0--0----0--|--3--3----3--3--3----3--|
--3--3----3--3--1----1--|--0--0----0--0--0----0--|------------------------|


                    PM PM                             PM         PM          
--------------------------|------------------------|------------------------|
--------------------------|------------------------|------------------------|
--------------------------|------------------------|------------------------|
--------------------------|------------------------|------------------------|
--6--6--6--6--6--6--6--6--|--5--5----5--3--3----3--|--0--0----0--0--0----0--|
--6--6--6--6--6--6--6--6--|--5--5----5--3--3----3--|--0--0----0--0--0----0--|



------------------------|------------------------|------------------------|
------------------------|------------------------|------------------------|
------------------------|------------------------|------------------------|
--5--5----5--5--5----5--|------------------------|------------------------|
--3--3----3--3--3----3--|--3--3----3--3--3----3--|--3--3----3--3--1----1--|
------------------------|--3--3----3--3--3----3--|--3--3----3--3--1----1--|


                                                                      PM PM  
------------------------|------------------------|--------------------------|
------------------------|------------------------|--------------------------|
------------------------|------------------------|--------------------------|
------------------------|--5--5----5--5--5----5--|--------------------------|
--0--0----0--0--0----0--|--3--3----3--3--3----3--|--6--6--6--6--6--6--6--6--|
--0--0----0--0--0----0--|------------------------|--6--6--6--6--6--6--6--6--|


                                             PM PM                           

------------------------|--------------------------|------------------------|
------------------------|--------------------------|------------------------|
------------------------|--------------------------|------------------------|
------------------------|--------------------------|------------------------|
--5--5----5--3--3----3--|--6--6--6--6--6--6--6--6--|--5--5----5--3--3----3--|
--5--5----5--3--3----3--|--6--6--6--6--6--6--6--6--|--5--5----5--3--3----3--|




                    PM PM                           Bridge:                    
--------------------------|------------------------|-------------------|
--------------------------|------------------------|-------------------|
--------------------------|------------------------|-------------------|
--------------------------|------------------------|-------------------|
--6--6--6--6--6--6--6--6--|--5--5----5--3--3----3--|--0----------------|
--6--6--6--6--6--6--6--6--|--5--5----5--3--3----3--|--0----------------|

                 
-------------------|-------------------|-------------------|-------------------|
-------------------|-------------------|-------------------|-------------------|
-------------------|-------------------|-------------------|-------------------|
-------------------|-------------------|-------------------|-------------------|
--L----------------|--0----------------|--L----------------|--0----------------|
--L----------------|--0----------------|--L----------------|--0----------------|


                                               PM              
-------------------|-------------------|----------------------|
-------------------|-------------------|----------------------|
-------------------|-------------------|----------------------|
-------------------|-------------------|------------5----7----|
--L----------------|--0----------------|--L----0----3----5----|
--L----------------|--0----------------|--L----0--------------|


-------------------|-------------------|-------------------|
-------------------|-------------------|-------------------|
-------------------|-------------------|-------------------|
--L----------------|--L----------------|--L----------------|
--L----------------|--L----------------|--L----------------|
-------------------|-------------------|-------------------|


       PM                                                                       
----------------------|-------------------|-------------------|
----------------------|-------------------|-------------------|
----------------------|-------------------|-------------------|
--L---------5----7----|--L----------------|--L----------------|
--L----0----3----5----|--L----------------|--L----------------|
-------0--------------|-------------------|-------------------|


                           PM                                  
-------------------|----------------------|-------------------|
-------------------|----------------------|-------------------|
-------------------|----------------------|-------------------|
--L----------------|--L---------5----7----|--L----------------|
--L----------------|--L----0----3----5----|--L----------------|
-------------------|-------0--------------|-------------------|


                                               PM                   
-------------------|-------------------|----------------------|
-------------------|-------------------|----------------------|
-------------------|-------------------|----------------------|
--L----------------|--L----------------|--L---------5----7----|
--L----------------|--L----------------|--L----0----3----5----|
-------------------|-------------------|-------0--------------|


-------------------|-------------------|-------------------|
-------------------|-------------------|-------------------|
-------------------|-------------------|-------------------|
--L----------------|--L----------------|--L----------------|
--L----------------|--L----------------|--L----------------|
-------------------|-------------------|-------------------|





Outro:
       PM                                                            
----------------------|----------------------|----------------------|
----------------------|----------------------|----------------------|
----------------------|----------------------|----------------------|
--L---------5----7----|--L----7----7----7----|--7----7----7----7----|
--L----0----3----5----|--L----5----5----5----|--5----5----5----5----|
-------0--------------|----------------------|----------------------|


----------------------|----------------------|----------------------|
----------------------|----------------------|----------------------|
----------------------|----------------------|----------------------|
--7----7----7----7----|--7-------------------|----------------------|
--5----5----5----5----|--5----0----5----7----|--L----7----7----7----|
----------------------|-------0----5----7----|--L----7----7----7----|


----------------------|----------------------|----------------------|
----------------------|----------------------|----------------------|
----------------------|----------------------|----------------------|
----------------------|----------------------|----------------------|
--7----7----7----7----|--7----7----7----7----|--7----0----7----6----|
--7----7----7----7----|--7----7----7----7----|--7----0----7----6----|


----------------------|----------------------|----------------------|
----------------------|----------------------|----------------------|
----------------------|----------------------|----------------------|
----------------------|----------------------|----------------------|
--L----6----6----6----|--6----6----6----6----|--6----6----6----6----|
--L----6----6----6----|--6----6----6----6----|--6----6----6----6----|


----------------------|----------------------|----------------------|
----------------------|----------------------|----------------------|
----------------------|----------------------|----------------------|
----------------------|----------------------|----------------------|
--6----0----6----5----|--L----5----5----5----|--5----5----5----3----|
--6----0----6----5----|--L----5----5----5----|--5----5----5----3----|


----------------------|----------------------|----------------------|
----------------------|----------------------|----------------------|
----------------------|----------------------|----------------------|
----------------------|------------5----7----|--L----7----7----7----|
--L----3----3----3----|--3----0----3----5----|--L----5----5----5----|
--L----3----3----3----|--3----0--------------|----------------------|

     
----------------------|----------------------|----------------------|
----------------------|----------------------|----------------------|
----------------------|----------------------|----------------------|
--7----7----7----7----|--7----7----7----7----|--7-------------------|
--5----5----5----5----|--5----5----5----5----|--5----0----5----7----|
----------------------|----------------------|-------0----5----7----|

     
----------------------|----------------------|----------------------|
----------------------|----------------------|----------------------|
----------------------|----------------------|----------------------|
----------------------|----------------------|----------------------|
--L----7----7----7----|--7----7----7----7----|--7----7----7----7----|
--L----7----7----7----|--7----7----7----7----|--7----7----7----7----|

     
----------------------|----------------------|----------------------|
----------------------|----------------------|----------------------|
----------------------|----------------------|----------------------|
----------------------|----------------------|----------------------|
--7----0----7----6----|--L----6----6----6----|--6----6----6----6----|
--7----0----7----6----|--L----6----6----6----|--6----6----6----6----|


----------------------|----------------------|----------------------|
----------------------|----------------------|----------------------|
----------------------|----------------------|----------------------|
----------------------|----------------------|----------------------|
--6----6----6----6----|--6----0----6----5----|--L----5----5----5----|
--6----6----6----6----|--6----0----6----5----|--L----5----5----5----|


----------------------|----------------------|----------------------|
----------------------|----------------------|----------------------|
----------------------|----------------------|----------------------|
----------------------|----------------------|------------5----7----|
--5----5----5----3----|--L----3----3----3----|--3----0----3----5----|
--5----5----5----3----|--L----3----3----3----|--3----0--------------|




Tablature Legend
----------------

L - tied note
> - accentuded note
NH - natural harmonic
PH - pitch harmonic
h - hammer on
p - pull off
b - bend
PM - Palm Mute

Добавлено: 31.05.2012
Другие материалы по этой песне:

Страница создана 30.03.2012
http://primanota.ru/deez-nuts/never-grow-up-chords.htm
Привет, Гость.
Предлагаем пройти революционный курс по гитаре.
Подарок от PrimaNota.Ru, забирай!