PrimaNota.ru - самый крупный в мире бесплатный архив песенных текстов, аккордов, табулатур и нот


Deez Nuts - Love Hate - текст песни, таба, видео

Регистрация Запомнить меня
Войти через:  Facebook Google Twitter Vk Yandex Mail.ru

Deez Nuts - Love Hate - текст песни, таба, видео

Печатать
Просмотров: 257
Уроки эстрадного вокала в Санкт-Петербурге
Song: Love Hate
Artist: Deez Nuts
Album: Stay True
Year: 2008


Intro:
                PM PM PM PM PM PM PM PM PM PM PM PM PM
D||--------|----------------------------------------------|
A||--------|----------------------------------------------|
F||--------|----------------------------------------------|
C||--------|--L-------------------------------------------|
G||------6-|--L--6--6--6--6--6--6--6--6--6--6--6--6--6--6-|
C||------6-|--L--6--6--6--6--6--6--6--6--6--6--6--6--6--6-|


     PM PM PM PM PM PM
---------------------------------------|
---------------------------------------|
---------------------------------------|
---------------------------------------|
--L--6--6--6--6--6--6--9-9-9-9-9-9-9-6-|
--L--6--6--6--6--6--6--9-9-9-9-9-9-9-6-|


     PM PM PM PM PM PM PM PM PM PM PM PM PM
----------------------------------------------|
----------------------------------------------|
----------------------------------------------|
--L-------------------------------------------|
--L--6--6--6--6--6--6--6--6--6--6--6--6--6--6-|
--L--6--6--6--6--6--6--6--6--6--6--6--6--6--6-|


     PM PM PM PM PM PM
---------------------------------------|
---------------------------------------|
---------------------------------------|
---------------------------------------|
--L--6--6--6--6--6--6--9-9-9-9-9-9-9-3-|
--L--6--6--6--6--6--6--9-9-9-9-9-9-9-3-|


     PM PM PM PM PM PM PM PM PM PM PM PM PM
----------------------------------------------|
----------------------------------------------|
----------------------------------------------|
----------------------------------------------|
--L--3--3--3--3--3--3--3--3--3--3--3--3--3--3-|
--L--3--3--3--3--3--3--3--3--3--3--3--3--3--3-|


     PM PM PM PM PM PM
---------------------------------------|
---------------------------------------|
---------------------------------------|
---------------------------------------|
--L--3--3--3--3--3--3--6-6-6-6-6-6-6-3-|
--L--3--3--3--3--3--3--6-6-6-6-6-6-6-3-|


     PM PM PM PM PM PM PM PM PM PM PM PM PM
----------------------------------------------|
----------------------------------------------|
----------------------------------------------|
----------------------------------------------|
--L--3--3--3--3--3--3--3--3--3--3--3--3--3--6-|
--L--3--3--3--3--3--3--3--3--3--3--3--3--3--6-|


---------------------------------|
---------------------------------|
---------------------------------|
---------------------------------|
--L-6-x-9--9-x-12--12-x-7--7-x-6-|
--L-6-x-9--9-x-12--12-x-7--7-x-6-|

Verse:

     PM PM PM PM PM PM PM PM PM PM PM PM PM
----------------------------------------------|
----------------------------------------------|
----------------------------------------------|
--L-------------------------------------------|
--L--6--6--6--6--6--6--6--6--6--6--6--6--6--6-|
--L--6--6--6--6--6--6--6--6--6--6--6--6--6--6-|


     PM PM PM PM PM PM
---------------------------------------|
---------------------------------------|
---------------------------------------|
---------------------------------------|
--L--6--6--6--6--6--6--9-9-9-9-9-9-9-6-|
--L--6--6--6--6--6--6--9-9-9-9-9-9-9-6-|


     PM PM PM PM PM PM PM PM PM PM PM PM PM
----------------------------------------------|
----------------------------------------------|
----------------------------------------------|
--L-------------------------------------------|
--L--6--6--6--6--6--6--6--6--6--6--6--6--6--6-|
--L--6--6--6--6--6--6--6--6--6--6--6--6--6--6-|


     PM PM PM PM PM PM
---------------------------------------|
---------------------------------------|
---------------------------------------|
---------------------------------------|
--L--6--6--6--6--6--6--9-9-9-9-9-9-9-3-|
--L--6--6--6--6--6--6--9-9-9-9-9-9-9-3-|


     PM PM PM PM PM PM PM PM PM PM PM PM PM
----------------------------------------------|
----------------------------------------------|
----------------------------------------------|
----------------------------------------------|
--L--3--3--3--3--3--3--3--3--3--3--3--3--3--3-|
--L--3--3--3--3--3--3--3--3--3--3--3--3--3--3-|


     PM PM PM PM PM PM
---------------------------------------|
---------------------------------------|
---------------------------------------|
---------------------------------------|
--L--3--3--3--3--3--3--6-6-6-6-6-6-6-3-|
--L--3--3--3--3--3--3--6-6-6-6-6-6-6-3-|


  E  S  S  S  S  S  S  S  S  S  S  S  S  S  S
----------------------------------------------|
----------------------------------------------|
----------------------------------------------|
----------------------------------------------|
--L--3--3--3--3--3--3--3--3--3--3--3--3--3--6-|
--L--3--3--3--3--3--3--3--3--3--3--3--3--3--6-|


---------------------------------|---------------------|
---------------------------------|---------------------|
---------------------------------|---------------------|
---------------------------------|---------------------|
--L-6-x-9--9-x-12--12-x-7--7-x-6-|--L------------L---6-|
--L-6-x-9--9-x-12--12-x-7--7-x-6-|--L------------L---6-|


---------------------------|---------------------|---------------------------|
---------------------------|---------------------|---------------------------|
---------------------------|---------------------|---------------------------|
---------------------------|---------------------|---------------------------|
--L--------9-9-9-9-9-9-9-6-|--L------------L---6-|--L--------9-9-9-9-9-9-9-3-|
--L--------9-9-9-9-9-9-9-6-|--L------------L---6-|--L--------9-9-9-9-9-9-9-3-|


     PM PM PM PM PM PM PM         PM PM PM PM
----------------------------|-------------------------------|
----------------------------|-------------------------------|
----------------------------|-------------------------------|
----------------------------|-------------------------------|
--L--3--3--3--3--3--3--3--3-|--L--3--3--3--6--6-6-6-6-6-6-3-|
--L--3--3--3--3--3--3--3--3-|--L--3--3--3--6--6-6-6-6-6-6-3-|


     PM PM PM PM PM PM PM
----------------------------|---------------------------------|----|
----------------------------|---------------------------------|----|
----------------------------|---------------------------------|----|
----------------------------|---------------------------------|----|
--L--3--3--3--3--3--3--3--6-|--L-6-x-9--9-x-12--12-x-7--7-x-6-|----|
--L--3--3--3--3--3--3--3--6-|--L-6-x-9--9-x-12--12-x-7--7-x-6-|----|


Chorus:
----------------------------------|----------------------------------|
----------------------------------|----------------------------------|
----------------------------------|----------------------------------|
----------------------------------|----------------------------------|
--6-6-6-6-6-6-6-6-6-6-6-6-6-6-6-6-|--6-6-6-6-6-6-6-6-6-6-6-6-6-6-6-6-|
--6-6-6-6-6-6-6-6-6-6-6-6-6-6-6-6-|--6-6-6-6-6-6-6-6-6-6-6-6-6-6-6-6-|


----------------------------------|------------------------------------------|
----------------------------------|------------------------------------------|
----------------------------------|------------------------------------------|
----------------------------------|------------------------------------------|
--9-9-9-9-9-9-9-9-9-9-9-9-9-9-9-9-|--12-12-12-12-12-12-12-12-7-7-7-7-7-7-7-7-|
--9-9-9-9-9-9-9-9-9-9-9-9-9-9-9-9-|--12-12-12-12-12-12-12-12-7-7-7-7-7-7-7-7-|


----------------------------------|----------------------------------|
----------------------------------|----------------------------------|
----------------------------------|----------------------------------|
----------------------------------|----------------------------------|
--6-6-6-6-6-6-6-6-6-6-6-6-6-6-6-6-|--6-6-6-6-6-6-6-6-6-6-6-6-6-6-6-6-|
--6-6-6-6-6-6-6-6-6-6-6-6-6-6-6-6-|--6-6-6-6-6-6-6-6-6-6-6-6-6-6-6-6-|


----------------------------------|------------------------------------------|
----------------------------------|------------------------------------------|
----------------------------------|------------------------------------------|
----------------------------------|------------------------------------------|
--9-9-9-9-9-9-9-9-9-9-9-9-9-9-9-9-|--12-12-12-12-12-12-12-12-7-7-7-7-7-7-7-7-|
--9-9-9-9-9-9-9-9-9-9-9-9-9-9-9-9-|--12-12-12-12-12-12-12-12-7-7-7-7-7-7-7-7-|


----------------------------------|----------------------------------|
----------------------------------|----------------------------------|
----------------------------------|----------------------------------|
----------------------------------|----------------------------------|
--6-6-6-6-6-6-6-6-6-6-6-6-6-6-6-6-|--6-6-6-6-6-6-6-6-6-6-6-6-6-6-6-6-|
--6-6-6-6-6-6-6-6-6-6-6-6-6-6-6-6-|--6-6-6-6-6-6-6-6-6-6-6-6-6-6-6-6-|


----------------------------------|------------------------------------------|
----------------------------------|------------------------------------------|
----------------------------------|------------------------------------------|
----------------------------------|------------------------------------------|
--9-9-9-9-9-9-9-9-9-9-9-9-9-9-9-9-|--12-12-12-12-12-12-12-12-7-7-7-7-7-7-7-7-|
--9-9-9-9-9-9-9-9-9-9-9-9-9-9-9-9-|--12-12-12-12-12-12-12-12-7-7-7-7-7-7-7-7-|


----------------------------------|----------------------------------|
----------------------------------|----------------------------------|
----------------------------------|----------------------------------|
----------------------------------|----------------------------------|
--6-6-6-6-6-6-6-6-6-6-6-6-6-6-6-6-|--6-6-6-6-6-6-6-6-6-6-6-6-6-6-6-6-|
--6-6-6-6-6-6-6-6-6-6-6-6-6-6-6-6-|--6-6-6-6-6-6-6-6-6-6-6-6-6-6-6-6-|


----------------------------------|------------------------------------------|
----------------------------------|------------------------------------------|
----------------------------------|------------------------------------------|
----------------------------------|------------------------------------------|
--9-9-9-9-9-9-9-9-9-9-9-9-9-9-9-9-|--12-12-12-12-12-12-12-12-7-7-7-7-7-7-7-7-|
--9-9-9-9-9-9-9-9-9-9-9-9-9-9-9-9-|--12-12-12-12-12-12-12-12-7-7-7-7-7-7-7-7-|


----------------------------------|---------------------------------|
----------------------------------|---------------------------------|
----------------------------------|---------------------------------|
----------------------------------|---------------------------------|
--6-6-6-6-6-6-6-6-6-6-6-6-6-6-x-6-|--L-6-x-9--9-x-12--12-x-7--7-x-6-|
--6-6-6-6-6-6-6-6-6-6-6-6-6-6-x-6-|--L-6-x-9--9-x-12--12-x-7--7-x-6-|


Verse:
     PM PM PM PM PM PM PM PM PM PM PM PM PM
----------------------------------------------|
----------------------------------------------|
----------------------------------------------|
--L-------------------------------------------|
--L--6--6--6--6--6--6--6--6--6--6--6--6--6--6-|
--L--6--6--6--6--6--6--6--6--6--6--6--6--6--6-|


     PM PM PM PM PM PM
---------------------------------------|
---------------------------------------|
---------------------------------------|
---------------------------------------|
--L--6--6--6--6--6--6--9-9-9-9-9-9-9-6-|
--L--6--6--6--6--6--6--9-9-9-9-9-9-9-6-|


     PM PM PM PM PM PM PM PM PM PM PM PM PM
----------------------------------------------|
----------------------------------------------|
----------------------------------------------|
--L-------------------------------------------|
--L--6--6--6--6--6--6--6--6--6--6--6--6--6--6-|
--L--6--6--6--6--6--6--6--6--6--6--6--6--6--6-|


     PM PM PM PM PM PM
---------------------------------------|
---------------------------------------|
---------------------------------------|
---------------------------------------|
--L--6--6--6--6--6--6--9-9-9-9-9-9-9-3-|
--L--6--6--6--6--6--6--9-9-9-9-9-9-9-3-|


     PM PM PM PM PM PM PM PM PM PM PM PM PM
----------------------------------------------|
----------------------------------------------|
----------------------------------------------|
----------------------------------------------|
--L--3--3--3--3--3--3--3--3--3--3--3--3--3--3-|
--L--3--3--3--3--3--3--3--3--3--3--3--3--3--3-|


     PM PM PM PM PM PM
---------------------------------------|
---------------------------------------|
---------------------------------------|
---------------------------------------|
--L--3--3--3--3--3--3--6-6-6-6-6-6-6-3-|
--L--3--3--3--3--3--3--6-6-6-6-6-6-6-3-|


     PM PM PM PM PM PM PM PM PM PM PM PM PM
----------------------------------------------|
----------------------------------------------|
----------------------------------------------|
----------------------------------------------|
--L--3--3--3--3--3--3--3--3--3--3--3--3--3--6-|
--L--3--3--3--3--3--3--3--3--3--3--3--3--3--6-|


---------------------------------|
---------------------------------|
---------------------------------|
---------------------------------|
--L-6-x-9--9-x-12--12-x-7--7-x-6-|
--L-6-x-9--9-x-12--12-x-7--7-x-6-|


     PM PM PM PM PM PM PM PM PM PM PM PM PM
----------------------------------------------|
----------------------------------------------|
----------------------------------------------|
--L-------------------------------------------|
--L--6--6--6--6--6--6--6--6--6--6--6--6--6--6-|
--L--6--6--6--6--6--6--6--6--6--6--6--6--6--6-|


     PM PM PM PM PM PM
---------------------------------------|
---------------------------------------|
---------------------------------------|
---------------------------------------|
--L--6--6--6--6--6--6--9-9-9-9-9-9-9-6-|
--L--6--6--6--6--6--6--9-9-9-9-9-9-9-6-|


     PM PM PM PM PM PM PM PM PM PM PM PM PM
----------------------------------------------|
----------------------------------------------|
----------------------------------------------|
--L-------------------------------------------|
--L--6--6--6--6--6--6--6--6--6--6--6--6--6--6-|
--L--6--6--6--6--6--6--6--6--6--6--6--6--6--6-|


     PM PM PM PM PM PM
---------------------------------------|
---------------------------------------|
---------------------------------------|
---------------------------------------|
--L--6--6--6--6--6--6--9-9-9-9-9-9-9-3-|
--L--6--6--6--6--6--6--9-9-9-9-9-9-9-3-|


     PM PM PM PM PM PM PM PM PM PM PM PM PM
----------------------------------------------|
----------------------------------------------|
----------------------------------------------|
----------------------------------------------|
--L--3--3--3--3--3--3--3--3--3--3--3--3--3--3-|
--L--3--3--3--3--3--3--3--3--3--3--3--3--3--3-|


     PM PM PM PM PM PM
---------------------------------------|
---------------------------------------|
---------------------------------------|
---------------------------------------|
--L--3--3--3--3--3--3--6-6-6-6-6-6-6-3-|
--L--3--3--3--3--3--3--6-6-6-6-6-6-6-3-|


     PM PM PM PM PM PM PM PM PM PM PM PM PM
----------------------------------------------|
----------------------------------------------|
----------------------------------------------|
----------------------------------------------|
--L--3--3--3--3--3--3--3--3--3--3--3--3--3--6-|
--L--3--3--3--3--3--3--3--3--3--3--3--3--3--6-|


---------------------------------|---------------------|
---------------------------------|---------------------|
---------------------------------|---------------------|
---------------------------------|---------------------|
--L-6-x-9--9-x-12--12-x-7--7-x-6-|--L------------L---6-|
--L-6-x-9--9-x-12--12-x-7--7-x-6-|--L------------L---6-|


---------------------------|---------------------|---------------------------|
---------------------------|---------------------|---------------------------|
---------------------------|---------------------|---------------------------|
---------------------------|---------------------|---------------------------|
--L--------9-9-9-9-9-9-9-6-|--L------------L---6-|--L--------9-9-9-9-9-9-9-3-|
--L--------9-9-9-9-9-9-9-6-|--L------------L---6-|--L--------9-9-9-9-9-9-9-3-|


     PM PM PM PM PM PM PM         PM PM PM PM
----------------------------|-------------------------------|
----------------------------|-------------------------------|
----------------------------|-------------------------------|
----------------------------|-------------------------------|
--L--3--3--3--3--3--3--3--3-|--L--3--3--3--6--6-6-6-6-6-6-3-|
--L--3--3--3--3--3--3--3--3-|--L--3--3--3--6--6-6-6-6-6-6-3-|


     PM PM PM PM PM PM PM                                        Bass Solo
----------------------------|---------------------------------|----|----|----|
----------------------------|---------------------------------|----|----|----|
----------------------------|---------------------------------|----|----|----|
----------------------------|---------------------------------|----|----|----|
--L--3--3--3--3--3--3--3--6-|--L-6-x-9--9-x-12--12-x-7--7-x-6-|----|----|----|
--L--3--3--3--3--3--3--3--6-|--L-6-x-9--9-x-12--12-x-7--7-x-6-|----|----|----|


      Bridge:
       PM PM PM PM PM PM PM PM     PM  PM  PM  PM PM PM PM PM
----|--------------------------|------------------------------|
----|--------------------------|------------------------------|
----|--------------------------|------------------------------|
----|--------------------------|------------------------------|
----|--6--6--6--6--9--9--9--9--|--12--12--12--12--7--7--7--7--|
----|--6--6--6--6--9--9--9--9--|--12--12--12--12--7--7--7--7--|


  PM PM PM PM PM PM PM PM     PM  PM  PM  PM PM PM PM PM
--------------------------|------------------------------|
--------------------------|------------------------------|
--------------------------|------------------------------|
--------------------------|------------------------------|
--6--6--6--6--9--9--9--9--|--12--12--12--12--7--7--7--7--|
--6--6--6--6--9--9--9--9--|--12--12--12--12--7--7--7--7--|


  PM PM PM PM PM PM PM
--------------------------|------------------------------|
--------------------------|------------------------------|
--------------------------|------------------------------|
--------------------------|------------------------------|
--6--6--6--6--9--9--9--9--|--12--12--12--12--7--7--7--7--|
--6--6--6--6--9--9--9--9--|--12--12--12--12--7--7--7--7--|


--------------------------|------------------------------|---------------------|
--------------------------|------------------------------|---------------------|
--------------------------|------------------------------|---------------------|
--------------------------|------------------------------|---------------------|
--6--6--6--6--9--9--9--9--|--12--12--12--12--7--7--7--7--|--6------------------|
--6--6--6--6--9--9--9--9--|--12--12--12--12--7--7--7--7--|--6------------------|


Chorus:
-----|----------------------------------|----------------------------------|
-----|----------------------------------|----------------------------------|
-----|----------------------------------|----------------------------------|
-----|----------------------------------|----------------------------------|
-----|--6-6-6-6-6-6-6-6-6-6-6-6-6-6-6-6-|--6-6-6-6-6-6-6-6-6-6-6-6-6-6-6-6-|
-----|--6-6-6-6-6-6-6-6-6-6-6-6-6-6-6-6-|--6-6-6-6-6-6-6-6-6-6-6-6-6-6-6-6-|


----------------------------------|------------------------------------------|
----------------------------------|------------------------------------------|
----------------------------------|------------------------------------------|
----------------------------------|------------------------------------------|
--9-9-9-9-9-9-9-9-9-9-9-9-9-9-9-9-|--12-12-12-12-12-12-12-12-7-7-7-7-7-7-7-7-|
--9-9-9-9-9-9-9-9-9-9-9-9-9-9-9-9-|--12-12-12-12-12-12-12-12-7-7-7-7-7-7-7-7-|


----------------------------------|----------------------------------|
----------------------------------|----------------------------------|
----------------------------------|----------------------------------|
----------------------------------|----------------------------------|
--6-6-6-6-6-6-6-6-6-6-6-6-6-6-6-6-|--6-6-6-6-6-6-6-6-6-6-6-6-6-6-6-6-|
--6-6-6-6-6-6-6-6-6-6-6-6-6-6-6-6-|--6-6-6-6-6-6-6-6-6-6-6-6-6-6-6-6-|


----------------------------------|------------------------------------------|
----------------------------------|------------------------------------------|
----------------------------------|------------------------------------------|
----------------------------------|------------------------------------------|
--9-9-9-9-9-9-9-9-9-9-9-9-9-9-9-9-|--12-12-12-12-12-12-12-12-7-7-7-7-7-7-7-7-|
--9-9-9-9-9-9-9-9-9-9-9-9-9-9-9-9-|--12-12-12-12-12-12-12-12-7-7-7-7-7-7-7-7-|


----------------------------------|----------------------------------|
----------------------------------|----------------------------------|
----------------------------------|----------------------------------|
----------------------------------|----------------------------------|
--6-6-6-6-6-6-6-6-6-6-6-6-6-6-6-6-|--6-6-6-6-6-6-6-6-6-6-6-6-6-6-6-6-|
--6-6-6-6-6-6-6-6-6-6-6-6-6-6-6-6-|--6-6-6-6-6-6-6-6-6-6-6-6-6-6-6-6-|


----------------------------------|------------------------------------------|
----------------------------------|------------------------------------------|
----------------------------------|------------------------------------------|
----------------------------------|------------------------------------------|
--9-9-9-9-9-9-9-9-9-9-9-9-9-9-9-9-|--12-12-12-12-12-12-12-12-7-7-7-7-7-7-7-7-|
--9-9-9-9-9-9-9-9-9-9-9-9-9-9-9-9-|--12-12-12-12-12-12-12-12-7-7-7-7-7-7-7-7-|


----------------------------------|----------------------------------|
----------------------------------|----------------------------------|
----------------------------------|----------------------------------|
----------------------------------|----------------------------------|
--6-6-6-6-6-6-6-6-6-6-6-6-6-6-6-6-|--6-6-6-6-6-6-6-6-6-6-6-6-6-6-6-6-|
--6-6-6-6-6-6-6-6-6-6-6-6-6-6-6-6-|--6-6-6-6-6-6-6-6-6-6-6-6-6-6-6-6-|


----------------------------------|------------------------------------------|
----------------------------------|------------------------------------------|
----------------------------------|------------------------------------------|
----------------------------------|------------------------------------------|
--9-9-9-9-9-9-9-9-9-9-9-9-9-9-9-9-|--12-12-12-12-12-12-12-12-7-7-7-7-7-7-7-7-|
--9-9-9-9-9-9-9-9-9-9-9-9-9-9-9-9-|--12-12-12-12-12-12-12-12-7-7-7-7-7-7-7-7-|


---------------------||
---------------------||
---------------------||
---------------------||
--6------------------||
--6------------------||


Tablature Legend
----------------
L - tied note
x - dead note
> - accentuded note
NH - natural harmonic
AH - artificial harmonic
PH - pitch harmonic
h - hammer on
p - pull off
b - bend
br - bendRelease
pb - preBend
Добавлено: 13.06.2012
Другие материалы по этой песне:

Страница создана 13.06.2012
http://primanota.ru/deez-nuts/love-hate-chords.htm
Привет, Гость.
Предлагаем пройти революционный курс по гитаре.
Подарок от PrimaNota.Ru, забирай!