PrimaNota.ru - самый крупный в мире бесплатный архив песенных текстов, аккордов, табулатур и нот


Deez Nuts - Its Like That - текст песни, бас-таба, видео

Регистрация Запомнить меня
Войти через:  Facebook Google Twitter Vk Yandex Mail.ru

Deez Nuts - Its Like That - текст песни, бас-таба, видео

Печатать
Просмотров: 253
-------------------------------------------------------------------------------
			Deez Nuts - It's Like That...
-------------------------------------------------------------------------------

Tabbed By : xLuisitox
e-mail:     luis.antonio.92@gmail.com

Easy tab, took me a couple of hours but i think it's perfect
please rate :)



Bass Tab
Tuning: Drop C  (C G C F)


  (00:00)    Intro          (00:09)           (00:14)
F|------------------------|------------------|--------------------------|
C|------------------------|------------------|--------------------------|
G|------------------------|------------------|--------------------------|
C|-60~--8~-3~--60~--8~-3~-|-60~0-0-0-0-0-0-0-|-60~-0-0-0-0--8~-8888833--|


  (00:21)    "Day after day..."
F|----------------------------------------------------------|
C|------------------------3rd & 4th time start with zeros---|
G|----------------------------------------------------------|
C|-6~00000000000000-8~888888-3~333333-----------------------| x4


  (00:41)    Main bass part
F|----------------------------------------------------------|
C|----------------------------------------------------------|
G|----------------------------------------------------------|
C|-6~5350-65350-000-3~33-6~66-0~000000----------------------| x4


  (01:01)    "Day after day, time after time!"
F|----------------------------------------------------------|
C|----------------------------------With guitars------------|  4th time finish with 1 (ones)
G|----------------------------------------------------------|
C|-6~5350-65350-000-3~33-6~66-0~000000----------------------| x4


  (01:21)    "I'm going out of my fucking mind!"
F|----------------------------------------------------------|
C|-------------------------------Harder---------------------|
G|----------------------------------------------------------|
C|-6~5350-65350-000-3~33-6~66-0~----------------------------| x2


  (01:32)    "But I'm way off the top"
F|----------------------------------------------------------|
C|----------------------------------------------------------|
G|----------------------------------------------------------|
C|-6~5350-65350-000-3~33-6~66-0~000000----------------------| Until the end


  (01:56)                          Ending zero on (02:03)
F|----------------------------------------------------------|
C|----------------------------------------------------------|
G|----------------------------------------------------------|
C|-6~5350-65350-000-3~33-6~66-3~333333-0~~~-----------------|


============================================================================

| /  slide up
| \  slide down
| h  hammer-on
| p  pull-off
| ~  vibrato
| +  harmonic
| x  Mute note
============================================================================

Добавлено: 22.05.2012
Другие материалы по этой песне:
  • Аккорды и текст

Страница создана 22.05.2012
http://primanota.ru/deez-nuts/its-like-that-chords.htm
Привет, Гость.
Предлагаем пройти революционный курс по гитаре.
Подарок от PrimaNota.Ru, забирай!