PrimaNota.ru - самый крупный в мире бесплатный архив песенных текстов, аккордов, табулатур и нот


Deez Nuts - Fuck The World - текст песни, таба, видео

Регистрация Запомнить меня
Войти через:  Facebook Google Twitter Vk Yandex Mail.ru

Deez Nuts - Fuck The World - текст песни, таба, видео

Печатать
Просмотров: 121
Song: Fuck The World
Artist: Deez Nuts
Album: Stay True:
Year: 2009
Tuning: Drop c




Intro:
                           PM PM PM PM PM PM PM PM    
D|----------------------|--------------------------|
A|----------------------|--------------------------|
F|----------------------|--------------------------|
C|--5----5----5----5----|--------------------------|
G|--3----3----3----3----|--4--4--4--8--8--8--7--7--|
C|----------------------|--4--4--4--8--8--8--7--7--|


  PM  PM  PM  PM PM PM PM PM    PM PM PM PM PM PM PM PM     
-----------------------------|--------------------------|
-----------------------------|--------------------------|
-----------------------------|--------------------------|
-----------------------------|--------------------------|
--7--10--10--10--4--4--4--5--|--4--4--4--8--8--8--7--7--|
--7--10--10--10--4--4--4--5--|--4--4--4--8--8--8--7--7--|


  PM PM PM PM PM PM PM PM    PM PM PM PM PM PM PM PM     
--------------------------|--------------------------|
--------------------------|--------------------------|
--------------------------|--------------------------|
--------------------------|--------------------------|
--7--2--2--2--4--4--4--5--|--4--4--4--8--8--8--7--7--|
--7--2--2--2--4--4--4--5--|--4--4--4--8--8--8--7--7--|


  PM  PM  PM  PM PM PM PM PM    PM PM PM PM PM PM PM PM     
-----------------------------|--------------------------|
-----------------------------|--------------------------|
-----------------------------|--------------------------|
-----------------------------|--------------------------|
--7--10--10--10--4--4--4--5--|--4--4--4--8--8--8--7--7--|
--7--10--10--10--4--4--4--5--|--4--4--4--8--8--8--7--7--|


  PM PM PM PM PM PM PM PM                                            
--------------------------|-------------------|---------------------|
--------------------------|-------------------|---------------------|
--------------------------|-------------------|---------------------|
--------------------------|-------------------|---------------------|
--7--2--2--2--4--4--4--5--|--4----------------|------------------5--|
--7--2--2--2--4--4--4--5--|--4----------------|------------------5--|




	Verse:
                                                       PM     PM  PM          
-------------------|--------------------------------|------------------------|
-------------------|--13----13----13---13------\----|------------------------|
-------------------|--16b---16b---16b--16b-----\----|------------------------|
-------------------|--------------------------------|------------------------|
--4----------------|--------------------------------|--4--4---4---4--4---4---|
--4----------------|--------------------------------|--4--4---4---4--4---4---|


------------------------|------------------------|-------------------------|
------------------------|------------------------|-------------------------|
------------------------|------------------------|-------------------------|
------------------------|------------------------|-------------------------|
--8---8---8--7---7---7--|--4---4---4--4---4---4--|--8---8---8--7--0--5--7--|
--8---8---8--7---7---7--|--4---4---4--4---4---4--|--8---8---8--7--0--5--7--|


  PM     PM  PM                                   
------------------------|------------------------|
------------------------|------------------------|
------------------------|------------------------|
------------------------|------------------------|
--4--4---4---4--4---4---|--8---8---8--7---7---7--|
--4--4---4---4--4---4---|--8---8---8--7---7---7--|


                                     PM PM PM PM                      
----------------------------------|-----------------------------|
----------------------------------|-----------------------------|
----------------------------------|-----------------------------|
----------------------------------|-----------------------------|
--10--10--10--10--10--10--10--10--|--4--4--4--4--5----8----7----|
--10--10--10--10--10--10--10--10--|--4--4--4--4--5----8----7----|


  PM     PM  PM                                                            
------------------------|------------------------|------------------------|
------------------------|------------------------|------------------------|
------------------------|------------------------|------------------------|
------------------------|------------------------|------------------------|
--4--4---4---4--4---4---|--8---8---8--7---7---7--|--4---4---4--4---4---4--|
--4--4---4---4--4---4---|--8---8---8--7---7---7--|--4---4---4--4---4---4--|


                            PM     PM  PM                                   
-------------------------|------------------------|------------------------|
-------------------------|------------------------|------------------------|
-------------------------|------------------------|------------------------|
-------------------------|------------------------|------------------------|
--8---8---8--7--0--5--7--|--4--4---4---4--4---4---|--8---8---8--7---7---7--|
--8---8---8--7--0--5--7--|--4--4---4---4--4---4---|--8---8---8--7---7---7--|

   
----------------------------------|----------------------------------|
----------------------------------|----------------------------------|
----------------------------------|----------------------------------|
----------------------------------|----------------------------------|
--10--10--10--10--10--10--10--10--|--10--10--10--10--10--10--10--10--|
--10--10--10--10--10--10--10--10--|--10--10--10--10--10--10--10--10--|




Chorus:
--------------------------|-----------------------------|
--------------------------|-----------------------------|
--------------------------|-----------------------------|
--------------------------|-----------------------------|
--4--4--4--8--8--8--7--7--|--7--10--10--10--4--4--4--5--|
--4--4--4--8--8--8--7--7--|--7--10--10--10--4--4--4--5--|


--------------------------|--------------------------|
--------------------------|--------------------------|
--------------------------|--------------------------|
--------------------------|--------------------------|
--4--4--4--8--8--8--7--7--|--7--2--2--2--4--4--4--5--|
--4--4--4--8--8--8--7--7--|--7--2--2--2--4--4--4--5--|

   
--------------------------|-----------------------------|
--------------------------|-----------------------------|
--------------------------|-----------------------------|
--------------------------|-----------------------------|
--4--4--4--8--8--8--7--7--|--7--10--10--10--4--4--4--5--|
--4--4--4--8--8--8--7--7--|--7--10--10--10--4--4--4--5--|




	Breakdown:
--------------------------|--------------------------|---------------------|
--------------------------|--------------------------|---------------------|
--------------------------|--------------------------|---------------------|
--------------------------|--------------------------|---------------------|
--4--4--4--8--8--8--7--7--|--7--2--2--2--4--4--4--5--|--4------8------7----|
--4--4--4--8--8--8--7--7--|--7--2--2--2--4--4--4--5--|--4------8------7----|


             PM PM                                         PM PM            
------------------------|---------------------|-----------------------|
------------------------|---------------------|-----------------------|
------------------------|---------------------|-----------------------|
------------------------|---------------------|-----------------------|
-----10------3--3--5----|--4------8------7----|-----2------3--3--5----|
-----10------3--3--5----|--4------8------7----|-----2------3--3--5----|


                                   PM PM                             
---------------------|------------------------|---------------------|
---------------------|------------------------|---------------------|
---------------------|------------------------|---------------------|
---------------------|------------------------|---------------------|
--4------8------7----|-----10------3--3--5----|--4------8------7----|
--4------8------7----|-----10------3--3--5----|--4------8------7----|




            PM PM      Bridge:                                         
-----------------------|-------------------|-------------------|
-----------------------|-------------------|-------------------|
-----------------------|-------------------|-------------------|
-----------------------|-------------------|-------------------|
-----2------3--3--5----|--4----------------|-------------------|
-----2------3--3--5----|--4----------------|-------------------|


                      PM PM PM PM                   PM PM PM PM      PM PM  
-------------------|-----------------------------|-------------------------|
-------------------|-----------------------------|-------------------------|
-------------------|-----------------------------|-------------------------|
-------------------|-----------------------------|-------------------------|
-------------------|--4--4--4--4--5----8----7----|--4--4--4--4--4----4--4--|
-------------------|--4--4--4--4--5----8----7----|--4--4--4--4--4----4--4--|


  PM PM      PM PM PM PM         PM PM PM PM       
-------------------------|------------------------|
-------------------------|------------------------|
-------------------------|------------------------|
-------------------------|------------------------|
--4--4--4----4--4--4--4--|--4----4--4--4--4--4----|
--4--4--4----4--4--4--4--|--4----4--4--4--4--4----|




	Verse:
  PM PM PM PM                   PM PM PM PM      PM PM     
-----------------------------|-------------------------|
-----------------------------|-------------------------|
-----------------------------|-------------------------|
-----------------------------|-------------------------|
--4--4--4--4--5----8----7----|--4--4--4--4--4----4--4--|
--4--4--4--4--5----8----7----|--4--4--4--4--4----4--4--|


  PM PM      PM PM PM PM         PM PM PM PM       
-------------------------|------------------------|
-------------------------|------------------------|
-------------------------|------------------------|
-------------------------|------------------------|
--4--4--4----4--4--4--4--|--4----4--4--4--4--4----|
--4--4--4----4--4--4--4--|--4----4--4--4--4--4----|


  PM PM PM PM                   PM PM PM PM      PM PM  
-----------------------------|-------------------------|
-----------------------------|-------------------------|
-----------------------------|-------------------------|
-----------------------------|-------------------------|
--4--4--4--4--5----8----7----|--4--4--4--4--4----4--4--|
--4--4--4--4--5----8----7----|--4--4--4--4--4----4--4--|


  PM PM      PM PM PM PM         PM PM PM PM            
-------------------------|------------------------|
-------------------------|------------------------|
-------------------------|------------------------|
-------------------------|------------------------|
--4--4--4----4--4--4--4--|--4----4--4--4--4--4----|
--4--4--4----4--4--4--4--|--4----4--4--4--4--4----|


  PM PM PM PM                   PM PM PM PM      PM PM     
-----------------------------|-------------------------|
-----------------------------|-------------------------|
-----------------------------|-------------------------|
-----------------------------|-------------------------|
--4--4--4--4--5----8----7----|--4--4--4--4--4----4--4--|
--4--4--4--4--5----8----7----|--4--4--4--4--4----4--4--|


  PM PM      PM PM PM PM         PM PM PM PM       
-------------------------|------------------------|
-------------------------|------------------------|
-------------------------|------------------------|
-------------------------|------------------------|
--4--4--4----4--4--4--4--|--4----4--4--4--4--4----|
--4--4--4----4--4--4--4--|--4----4--4--4--4--4----|


  PM PM PM PM                   PM PM PM PM      PM PM     
-----------------------------|-------------------------|
-----------------------------|-------------------------|
-----------------------------|-------------------------|
-----------------------------|-------------------------|
--4--4--4--4--5----8----7----|--4--4--4--4--4----4--4--|
--4--4--4--4--5----8----7----|--4--4--4--4--4----4--4--|


  PM PM      PM PM PM PM         PM PM PM PM       
-------------------------|------------------------|
-------------------------|------------------------|
-------------------------|------------------------|
-------------------------|------------------------|
--4--4--4----4--4--4--4--|--4----4--4--4--4--4----|
--4--4--4----4--4--4--4--|--4----4--4--4--4--4----|


  PM PM PM PM                                                           
-----------------------------|-------------------|---------------------|
-----------------------------|-------------------|---------------------|
-----------------------------|-------------------|---------------------|
-----------------------------|-------------------|---------------------|
--4--4--4--4--5----8----7----|--4----------------|------------------5--|
--4--4--4--4--5----8----7----|--4----------------|------------------5--|




	Verse:
                                                       PM     PM  PM          
-------------------|--------------------------------|------------------------|
-------------------|--13----13----13---13------\----|------------------------|
-------------------|--16b---16b---16b--16b-----\----|------------------------|
-------------------|--------------------------------|------------------------|
--4----------------|--------------------------------|--4--4---4---4--4---4---|
--4----------------|--------------------------------|--4--4---4---4--4---4---|


------------------------|------------------------|-------------------------|
------------------------|------------------------|-------------------------|
------------------------|------------------------|-------------------------|
------------------------|------------------------|-------------------------|
--8---8---8--7---7---7--|--4---4---4--4---4---4--|--8---8---8--7--0--5--7--|
--8---8---8--7---7---7--|--4---4---4--4---4---4--|--8---8---8--7--0--5--7--|


  PM     PM  PM                                      
------------------------|------------------------|
------------------------|------------------------|
------------------------|------------------------|
------------------------|------------------------|
--4--4---4---4--4---4---|--8---8---8--7---7---7--|
--4--4---4---4--4---4---|--8---8---8--7---7---7--|


                                     PM PM PM PM                      
----------------------------------|-----------------------------|
----------------------------------|-----------------------------|
----------------------------------|-----------------------------|
----------------------------------|-----------------------------|
--10--10--10--10--10--10--10--10--|--4--4--4--4--5----8----7----|
--10--10--10--10--10--10--10--10--|--4--4--4--4--5----8----7----|


  PM     PM  PM                                                            
------------------------|------------------------|------------------------|
------------------------|------------------------|------------------------|
------------------------|------------------------|------------------------|
------------------------|------------------------|------------------------|
--4--4---4---4--4---4---|--8---8---8--7---7---7--|--4---4---4--4---4---4--|
--4--4---4---4--4---4---|--8---8---8--7---7---7--|--4---4---4--4---4---4--|


                            PM     PM  PM                                   
-------------------------|------------------------|------------------------|
-------------------------|------------------------|------------------------|
-------------------------|------------------------|------------------------|
-------------------------|------------------------|------------------------|
--8---8---8--7--0--5--7--|--4--4---4---4--4---4---|--8---8---8--7---7---7--|
--8---8---8--7--0--5--7--|--4--4---4---4--4---4---|--8---8---8--7---7---7--|


----------------------------------|----------------------------------|
----------------------------------|----------------------------------|
----------------------------------|----------------------------------|
----------------------------------|----------------------------------|
--10--10--10--10--10--10--10--10--|--10--10--10--10--10--10--10--10--|
--10--10--10--10--10--10--10--10--|--10--10--10--10--10--10--10--10--|




Chorus:   
--------------------------|-----------------------------|
--------------------------|-----------------------------|
--------------------------|-----------------------------|
--------------------------|-----------------------------|
--4--4--4--8--8--8--7--7--|--7--10--10--10--4--4--4--5--|
--4--4--4--8--8--8--7--7--|--7--10--10--10--4--4--4--5--|

   
--------------------------|--------------------------|
--------------------------|--------------------------|
--------------------------|--------------------------|
--------------------------|--------------------------|
--4--4--4--8--8--8--7--7--|--7--2--2--2--4--4--4--5--|
--4--4--4--8--8--8--7--7--|--7--2--2--2--4--4--4--5--|


--------------------------|-----------------------------|
--------------------------|-----------------------------|
--------------------------|-----------------------------|
--------------------------|-----------------------------|
--4--4--4--8--8--8--7--7--|--7--10--10--10--4--4--4--5--|
--4--4--4--8--8--8--7--7--|--7--10--10--10--4--4--4--5--|




	Breakdown:
--------------------------|--------------------------|---------------------|
--------------------------|--------------------------|---------------------|
--------------------------|--------------------------|---------------------|
--------------------------|--------------------------|---------------------|
--4--4--4--8--8--8--7--7--|--7--2--2--2--4--4--4--5--|--4------8------7----|
--4--4--4--8--8--8--7--7--|--7--2--2--2--4--4--4--5--|--4------8------7----|


             PM PM                                         PM PM            
------------------------|---------------------|-----------------------|
------------------------|---------------------|-----------------------|
------------------------|---------------------|-----------------------|
------------------------|---------------------|-----------------------|
-----10------3--3--5----|--4------8------7----|-----2------3--3--5----|
-----10------3--3--5----|--4------8------7----|-----2------3--3--5----|


                                   PM PM                             
---------------------|------------------------|---------------------|
---------------------|------------------------|---------------------|
---------------------|------------------------|---------------------|
---------------------|------------------------|---------------------|
--4------8------7----|-----10------3--3--5----|--4------8------7----|
--4------8------7----|-----10------3--3--5----|--4------8------7----|




            PM PM       Bridge:                                                         
-----------------------|-------------------|-------------------|
-----------------------|-------------------|-------------------|
-----------------------|-------------------|-------------------|
-----------------------|-------------------|-------------------|
-----2------3--3--5----|--4----------------|-------------------|
-----2------3--3--5----|--4----------------|-------------------|

                 
-------------------|-------------------|-------------------|-------------------|
-------------------|-------------------|-------------------|-------------------|
-------------------|-------------------|-------------------|-------------------|
-------------------|-------------------|-------------------|-------------------|
-------------------|-------------------|--4----------------|-------------------|
-------------------|-------------------|--4----------------|-------------------|


-------------------|-------------------|-------------------|-------------------|
-------------------|-------------------|-------------------|-------------------|
-------------------|-------------------|-------------------|-------------------|
-------------------|-------------------|-------------------|-------------------|
-------------------|-------------------|--4----------------|-------------------|
-------------------|-------------------|--4----------------|-------------------|


-------------------|-------------------|-------------------|-------------------|
-------------------|-------------------|-------------------|-------------------|
-------------------|-------------------|-------------------|-------------------|
-------------------|-------------------|-------------------|-------------------|
-------------------|-------------------|--4----------------|-------------------|
-------------------|-------------------|--4----------------|-------------------|


                      PM PM PM PM                   PM PM PM PM      PM PM  
-------------------|-----------------------------|-------------------------|
-------------------|-----------------------------|-------------------------|
-------------------|-----------------------------|-------------------------|
-------------------|-----------------------------|-------------------------|
-------------------|--4--4--4--4--5----8----7----|--4--4--4--4--4----4--4--|
-------------------|--4--4--4--4--5----8----7----|--4--4--4--4--4----4--4--|


  PM PM      PM PM PM PM         PM PM PM PM       
-------------------------|------------------------|
-------------------------|------------------------|
-------------------------|------------------------|
-------------------------|------------------------|
--4--4--4----4--4--4--4--|--4----4--4--4--4--4----|
--4--4--4----4--4--4--4--|--4----4--4--4--4--4----|


  PM PM PM PM                   PM PM PM PM      PM PM     
-----------------------------|-------------------------|
-----------------------------|-------------------------|
-----------------------------|-------------------------|
-----------------------------|-------------------------|
--4--4--4--4--5----8----7----|--4--4--4--4--4----4--4--|
--4--4--4--4--5----8----7----|--4--4--4--4--4----4--4--|


  PM PM      PM PM PM PM         PM PM PM PM       
-------------------------|------------------------|
-------------------------|------------------------|
-------------------------|------------------------|
-------------------------|------------------------|
--4--4--4----4--4--4--4--|--4----4--4--4--4--4----|
--4--4--4----4--4--4--4--|--4----4--4--4--4--4----|


  PM PM PM PM                   PM PM PM PM      PM PM  
-----------------------------|-------------------------|
-----------------------------|-------------------------|
-----------------------------|-------------------------|
-----------------------------|-------------------------|
--4--4--4--4--5----8----7----|--4--4--4--4--4----4--4--|
--4--4--4--4--5----8----7----|--4--4--4--4--4----4--4--|


  PM PM      PM PM PM PM         PM PM PM PM            
-------------------------|------------------------|
-------------------------|------------------------|
-------------------------|------------------------|
-------------------------|------------------------|
--4--4--4----4--4--4--4--|--4----4--4--4--4--4----|
--4--4--4----4--4--4--4--|--4----4--4--4--4--4----|


  PM PM PM PM                   PM PM PM PM PM PM PM PM  
-----------------------------|--------------------------|
-----------------------------|--------------------------|
-----------------------------|--------------------------|
-----------------------------|--------------------------|
--4--4--4--4--5----8----7----|--4--4--4--4--4--4--4--4--|
--4--4--4--4--5----8----7----|--4--4--4--4--4--4--4--4--|


  PM PM PM PM PM PM PM PM    PM PM PM PM                                    
--------------------------|--------------------------|---------------------|
--------------------------|--------------------------|---------------------|
--------------------------|--------------------------|---------------------|
--------------------------|--------------------------|---------------------|
--4--4--4--4--4--4--4--4--|--4--4--4--4--4--4--4--4--|--4------------------|
--4--4--4--4--4--4--4--4--|--4--4--4--4--4--4--4--4--|--4------------------|




Breakdown:
--------------------------|--------------------------|
--------------------------|--------------------------|
--------------------------|--------------------------|
--------------------------|--------------------------|
--4--4--4--4--4-----4--4--|--4--4--4-----4--4--4--4--|
--4--4--4--4--4-----4--4--|--4--4--4-----4--4--4--4--|


                             PM PM PM PM                 
--------------------------|-----------------------------|
--------------------------|-----------------------------|
--------------------------|-----------------------------|
--------------------------|-----------------------------|
--4-----4--4--4--4--4-----|--4--4--4--4--5----8----7----|
--4-----4--4--4--4--4-----|--4--4--4--4--5----8----7----|


--------------------------|--------------------------|
--------------------------|--------------------------|
--------------------------|--------------------------|
--------------------------|--------------------------|
--4--4--4--4--4-----4--4--|--4--4--4-----4--4--4--4--|
--4--4--4--4--4-----4--4--|--4--4--4-----4--4--4--4--|


                             PM PM PM PM                 
--------------------------|-----------------------------|
--------------------------|-----------------------------|
--------------------------|-----------------------------|
--------------------------|-----------------------------|
--4-----4--4--4--4--4-----|--4--4--4--4--5----8----7----|
--4-----4--4--4--4--4-----|--4--4--4--4--5----8----7----|


--------------------------|--------------------------|
--------------------------|--------------------------|
--------------------------|--------------------------|
--------------------------|--------------------------|
--4--4--4--4--4-----4--4--|--4--4--4-----4--4--4--4--|
--4--4--4--4--4-----4--4--|--4--4--4-----4--4--4--4--|


                             PM PM PM PM                      
--------------------------|-----------------------------|
--------------------------|-----------------------------|
--------------------------|-----------------------------|
--------------------------|-----------------------------|
--4-----4--4--4--4--4-----|--4--4--4--4--5----8----7----|
--4-----4--4--4--4--4-----|--4--4--4--4--5----8----7----|


--------------------------|--------------------------|
--------------------------|--------------------------|
--------------------------|--------------------------|
--------------------------|--------------------------|
--4--4--4--4--4-----4--4--|--4--4--4-----4--4--4--4--|
--4--4--4--4--4-----4--4--|--4--4--4-----4--4--4--4--|




	Outro:
                             PM PM PM PM                      
--------------------------|-----------------------------|
--------------------------|-----------------------------|
--------------------------|-----------------------------|
--------------------------|-----------------------------|
--4-----4--4--4--4--4-----|--4--4--4--4--5----8----7----|
--4-----4--4--4--4--4-----|--4--4--4--4--5----8----7----|


  PM PM PM PM                                                                
-----------------------------|----------------------|-----------------------|
-----------------------------|----------------------|------------13b--------|
-----------------------------|----------------------|------------16b--------|
-----------------------------|----------------------|-----------------------|
--4--4--4--4--8----5----7----|--4---------4---------|--4--------------------|
--4--4--4--4--8----5----7----|--4---------4---------|--4--------------------|


--------------------||
--------------------||
--------------------||
--------------------||
--4-----------------||
--4-----------------||






Tablature Legend
----------------
PM - Palm Mute
x - dead note
g - grace note
(n) - ghost note
> - accentuded note
NH - natural harmonic
PH - pitch harmonic
h - hammer on
p - pull off
b - bend
br - bendRelease
pb - preBend

Добавлено: 25.07.2012
Другие материалы по этой песне:

Страница создана 12.05.2012
http://primanota.ru/deez-nuts/fuck-the-world-chords.htm
Привет, Гость.
Предлагаем пройти революционный курс по гитаре.
Подарок от PrimaNota.Ru, забирай!