PrimaNota.ru - самый крупный в мире бесплатный архив песенных текстов, аккордов, табулатур и нот


Deez Nuts - Face This On My Own - таба, видео

Регистрация Запомнить меня
Войти через:  Facebook Google Twitter Vk Yandex Mail.ru

Deez Nuts - Face This On My Own - таба, видео

Печатать
Просмотров: 198
-------------------------------------------------------------------------------
                      DEEZ NUTS - face this on my own
-------------------------------------------------------------------------------
Tabbed by: dinokezo
E-mail: dinowaddup@gmail.com

Tuning: drop D

*NOTE THAT THE STRUMMING PATTERN IS NOT 100% CORRECT - FIGURE IT OUT ON YOUR OWN

Intro
e|---------------------------------------------------------------------------|
B|---------------------------------------------------------------------------|
G|---------------------------------------------------------------------------|
D|5/8888888---8-7-8---1---3--4-3-4----8-7-8---1---3---2-2-1-0----------------| x2
A|5/8888888---8-7-8---1---3--4-3-4----8-7-8---1---3---2-2-1-0----------------|
D|5/8888888---8-7-8---1---3--4-3-4----8-7-8---1---3---2-2-1-0----------------|

Then it goes into the verse                 
e|---------------------------------------------------------------------------|
B|---------------------------------------------------------------------------|
G|---------------------------------------------------------------------------|
D|-77--xxxx--77--------------------------------------------------------------| repeat as required
A|-77--xxxx--77--------------------------------------------------------------|
D|-77--xxxx--77--------------------------------------------------------------|

when he sings 
"we've all walked the line, we've all paid our dues"

e|---------------------------------------------------------------------------|
B|---------------------------------------------------------------------------|
G|---------------------------------------------------------------------------|
D|-44--xxxx--44-----33--xxxx--33---------------------------------------------| 
A|-44--xxxx--44-----33--xxxx--33---------------------------------------------|
D|-44--xxxx--44-----33--xxxx--33---------------------------------------------|

then play verse
e|---------------------------------------------------------------------------|
B|---------------------------------------------------------------------------|
G|---------------------------------------------------------------------------|
D|-77--xxxx--77--------------------------------------------------------------| repeat as required
A|-77--xxxx--77--------------------------------------------------------------|
D|-77--xxxx--77--------------------------------------------------------------|

"and you know we'd catch you if you fall"
e|---------------------------------------------------------------------------|
B|---------------------------------------------------------------------------|
G|---------------------------------------------------------------------------|
D|-44--xxxx--44-----33--xxxx--33---------------------------------------------| 
A|-44--xxxx--44-----33--xxxx--33---------------------------------------------|
D|-44--xxxx--44-----33--xxxx--33---------------------------------------------|

The chorus is same as intro
e|---------------------------------------------------------------------------|
B|---------------------------------------------------------------------------|
G|---------------------------------------------------------------------------|
D|5/8888888---8-7-8---1---3--4-3-4----8-7-8---1---3---2-2-1-0----------------| x2
A|5/8888888---8-7-8---1---3--4-3-4----8-7-8---1---3---2-2-1-0----------------|
D|5/8888888---8-7-8---1---3--4-3-4----8-7-8---1---3---2-2-1-0----------------|

e|---------------------------------------------------------------------------|
B|---------------------------------------------------------------------------|
G|---------------------------------------------------------------------------|
D|-77--xxxx--77--But stop when he sings 420420420blazeitfgt---77--xxxx--77---| repeat as required
A|-77--xxxx--77-----------------------------------------------77--xxxx--77---|
D|-77--xxxx--77-----------------------------------------------77--xxxx--77---|

e|---------------------------------------------------------------------------|
B|---------------------------------------------------------------------------|
G|---------------------------------------------------------------------------|
D|-44--xxxx--44-----33--xxxx--33---------------------------------------------| 
A|-44--xxxx--44-----33--xxxx--33---------------------------------------------|
D|-44--xxxx--44-----33--xxxx--33---------------------------------------------|

e|---------------------------------------------------------------------------|
B|---------------------------------------------------------------------------|
G|---------------------------------------------------------------------------|
D|-77--xxxx--77--------------------------------------------------------------| repeat as required
A|-77--xxxx--77--------------------------------------------------------------|
D|-77--xxxx--77--------------------------------------------------------------|

e|---------------------------------------------------------------------------|
B|---------------------------------------------------------------------------|
G|---------------------------------------------------------------------------|
D|-4\----3/9999999-----------------------------------------------------------| 
A|-4\----3/9999999-----------------------------------------------------------|
D|-4\----3/9999999-----------------------------------------------------------|

chorus
e|---------------------------------------------------------------------------|
B|---------------------------------------------------------------------------|
G|---------------------------------------------------------------------------|
D|5/8888888---8-7-8---1---3--4-3-4----8-7-8---1---3---2-2-1-0----------------| x2
A|5/8888888---8-7-8---1---3--4-3-4----8-7-8---1---3---2-2-1-0----------------|
D|5/8888888---8-7-8---1---3--4-3-4----8-7-8---1---3---2-2-1-0----------------|

then bridge

e|---------------------------------------------------------------------------|
B|---------------------------------------------------------------------------|
G|---------------------------------------------------------------------------|
D|--3~------4-3-4-3~-----6~--------------------------------------------------| x2
A|--3~------4-3-4-3~-----6~--------------------------------------------------|
D|--3~------4-3-4-3~-----6~--------------------------------------------------|


THEN IT GOES INTO FINAL RIFF WHICH I WILL UPDATE SOON

************************************

| /   slide up
| \   slide down
| h   hammer-on
| p   pull-off
| ~   let ring
| +   harmonic
| x   Mute note
| b   Bend
| pb  Pre-bend
| br  Bend release
| pbr Pre-bend release
| brb Bend release bend

************************************
Добавлено: 21.12.2015
Другие материалы по этой песне:
  • Аккорды и текст

Страница создана 21.12.2015
http://primanota.ru/deez-nuts/face-this-on-my-own-chords.htm
Привет, Гость.
Предлагаем пройти революционный курс по гитаре.
Подарок от PrimaNota.Ru, забирай!