PrimaNota.ru - самый крупный в мире бесплатный архив песенных текстов, аккордов, табулатур и нот


Deez Nuts - Damn Right - текст песни, таба, видео

Регистрация Запомнить меня
Войти через:  Facebook Google Twitter Vk Yandex Mail.ru

Deez Nuts - Damn Right - текст песни, таба, видео

Печатать
Просмотров: 138
Song: Damn Right
Aritst: Deez Nuts
Album: Stay True
Year: 2008
   


Intro:
                                             PM PM PM PM     
D||-----------------------------|---------------------------|
A||-----------------------------|---------------------------|
F||-----------------------------|---------------------------|
C||-----------------------------|---------------------------|
G||--3h--4--4--3h--4--4--3h--4--|--4--3h--4--4--0--0--0--0--|
C||--3h--4--4--3h--4--4--3h--4--|--4--3h--4--4--0--0--0--0--|


-----------------------------|---------------------------|
-----------------------------|---------------------------|
-----------------------------|---------------------------|
-----------------------------|---------------------------|
--3h--4--4--3h--4--4--3h--4--|--4--3h--4--4--6--5--3--1--|
--3h--4--4--3h--4--4--3h--4--|--4--3h--4--4--6--5--3--1--|


       PM PM PM PM PM PM    PM PM PM PM PM PM PM                                
-------------------------|--------------------------|--------------------------|
-------------------------|--------------------------|--------------------------|
-------------------------|--------------------------|--------------------------|
-------------------------|--------------------------|--------------------------|
--L----1--1--1--1--1--1--|--1--1--1--1--1--1--1--6--|--L--6--6--6--6--6--6--6--|
--L----1--1--1--1--1--1--|--1--1--1--1--1--1--1--6--|--L--6--6--6--6--6--6--6--|


                                PM PM PM                      PM PM PM        
--------------------------|-----------------------|-----------------------|
--------------------------|-----------------------|-----------------------|
--------------------------|-----------------------|-----------------------|
--------------------------|-----------------------|-----------------------|
--6--6--6--6--6--5--3--0--|--L--0--0--0--0--------|--L--------0--0--0--0--|
--6--6--6--6--6--5--3--0--|--L--0--0--0--0--------|--L--------0--0--0--0--|


     PM PM PM                       PM PM PM          PM PM PM                 
------------------------|-----------------------|------------------------|
------------------------|-----------------------|------------------------|
------------------------|-----------------------|------------------------|
------------------------|-----------------------|------------------------|
--L--0--0--0--0----0----|--L--------0--0--0--3--|--L--3--3--3--3----3----|
--L--0--0--0--0----0----|--L--------0--0--0--3--|--L--3--3--3--3----3----|


           PM PM PM          PM PM PM                   PM PM                 
-----------------------|------------------------|-------------------------|
-----------------------|------------------------|-------------------------|
-----------------------|------------------------|-------------------------|
-----------------------|------------------------|-------------------------|
--L--------3--3--3--6--|--L--6--6--6--6----6----|--L----0--0--6--5--3--0--|
--L--------3--3--3--6--|--L--6--6--6--6----6----|--L----0--0--6--5--3--0--|


     PM PM PM                   PM PM                   PM PM PM            
------------------------|-------------------------|------------------------|
------------------------|-------------------------|------------------------|
------------------------|-------------------------|------------------------|
--------------7---------|-------------------------|------------------------|
--L--0--0--0--5----0----|--L----0--0--1--1--1--0--|--L--0--0--0--0----0----|
--L--0--0--0-------0----|--L----0--0--1--1--1--0--|--L--0--0--0--0----0----|


           PM PM PM          PM PM PM                       PM PM PM     
-----------------------|------------------------|-----------------------|
-----------------------|------------------------|-----------------------|
-----------------------|------------------------|-----------------------|
-----------------------|------------------------|-----------------------|
--L--------0--0--0--3--|--L--3--3--3--3----3----|--L--------3--3--3--6--|
--L--------0--0--0--3--|--L--3--3--3--3----3----|--L--------3--3--3--6--|


     PM PM PM                   PM PM                                        
------------------------|-------------------------|-------------------------|
------------------------|-------------------------|-------------------------|
------------------------|-------------------------|-------------------------|
------------------------|-------------------------|-------------------------|
--L--6--6--6--6----6----|--L----0--0--6--5--3--0--|-------0-----0-----0-----|
--L--6--6--6--6----6----|--L----0--0--6--5--3--0--|-------0-----0-----0-----|




	Verse:
--------------------------|-------------------------|-------------------------|
--------------------------|-------------------------|-------------------------|
--------------------------|-------------------------|-------------------------|
--------------------------|--------7----7--7--7-----|--------7----7--7--7-----|
--0-----0-----1--1--1--0--|--L--0--5----5--5--5--0--|--L--0--5----5--5--5--0--|
--0-----0-----1--1--1--0--|--L--0----------------0--|--L--0----------------0--|


-------------------------|-------------------------|-------------------------|
-------------------------|-------------------------|-------------------------|
-------------------------|-------------------------|-------------------------|
--------5----5--5--5-----|--------8----8--8--8-----|--------7----7--7--7-----|
--L--0--3----3--3--3--0--|--L--0--6----6--6--6--0--|--L--0--5----5--5--5--0--|
--L--0----------------0--|--L--0----------------0--|--L--0----------------0--|

   
-------------------------|-------------------------|-------------------------|
-------------------------|-------------------------|-------------------------|
-------------------------|-------------------------|-------------------------|
--------7----7--7--7-----|--------5----5--5--5-----|--------8----------------|
--L--0--5----5--5--5--0--|--L--0--3----3--3--3--0--|--L--0--6----x--x--x--0--|
--L--0----------------0--|--L--0----------------0--|--L--0-------x--x--x--0--|


-------------------------|-------------------------|-------------------------|
-------------------------|-------------------------|-------------------------|
-------------------------|-------------------------|-------------------------|
--------7----7--7--7-----|--------7----7--7--7-----|--------5----5--5--5-----|
--L--0--5----5--5--5--0--|--L--0--5----5--5--5--0--|--L--0--3----3--3--3--0--|
--L--0----------------0--|--L--0----------------0--|--L--0----------------0--|


-------------------------|-------------------------|-------------------------|
-------------------------|-------------------------|-------------------------|
-------------------------|-------------------------|-------------------------|
--------8----8--8--8-----|--------7----7--7--7-----|--------7----7--7--7-----|
--L--0--6----6--6--6--0--|--L--0--5----5--5--5--0--|--L--0--5----5--5--5--0--|
--L--0----------------0--|--L--0----------------0--|--L--0----------------0--|


                                       PM PM PM PM                          
-------------------------|-------------------------|-----------------------|
-------------------------|-------------------------|-----------------------|
-------------------------|-------------------------|-----------------------|
--------5----5--5--5-----|--------8----------------|--7----------7---------|
--L--0--3----3--3--3--0--|--L--0--6----0--0--0--0--|--5--0----0--5------0--|
--L--0----------------0--|--L--0-------0--0--0--0--|-----0----0---------0--|



-----------------------|-----------------------|-----------------------|
-----------------------|-----------------------|-----------------------|
-----------------------|-----------------------|-----------------------|
--7----------7---------|--5----------5---------|--8----------8---------|
--5--0----0--5------0--|--3--0----0--3------0--|--6--0----0--6------0--|
-----0----0---------0--|-----0----0---------0--|-----0----0---------0--|


                                             PM PM PM PM  
-----------------------------|---------------------------|
-----------------------------|---------------------------|
-----------------------------|---------------------------|
-----------------------------|---------------------------|
--3h--4--4--3h--4--4--3h--4--|--4--3h--4--4--0--0--0--0--|
--3h--4--4--3h--4--4--3h--4--|--4--3h--4--4--0--0--0--0--|


-----------------------------|---------------------------|
-----------------------------|---------------------------|
-----------------------------|---------------------------|
-----------------------------|---------------------------|
--3h--4--4--3h--4--4--3h--4--|--4--3h--4--4--6--5--3--1--|
--3h--4--4--3h--4--4--3h--4--|--4--3h--4--4--6--5--3--1--|




Pre Chorus:

     PM PM PM PM PM PM PM    PM PM PM PM PM PM PM     
--------------------------|--------------------------|
--------------------------|--------------------------|
--------------------------|--------------------------|
--------------------------|--------------------------|
--L--1--1--1--1--1--1--1--|--1--1--1--1--1--1--1--6--|
--L--1--1--1--1--1--1--1--|--1--1--1--1--1--1--1--6--|


                                                        



   PM PM PM           	Chorus:
--------------------------|--------------------------|-----------------------|
--------------------------|--------------------------|-----------------------|
--------------------------|--------------------------|-----------------------|
--------------------------|--------------------------|-----------------------|
--L--6--6--6--6--6--6--6--|--6--6--6--6--6--5--3--0--|--L--0--0--0--0--------|
--L--6--6--6--6--6--6--6--|--6--6--6--6--6--5--3--0--|--L--0--0--0--0--------|


           PM PM PM          PM PM PM                       PM PM PM     
-----------------------|------------------------|-----------------------|
-----------------------|------------------------|-----------------------|
-----------------------|------------------------|-----------------------|
-----------------------|------------------------|-----------------------|
--L--------0--0--0--0--|--L--0--0--0--0----0----|--L--------0--0--0--3--|
--L--------0--0--0--0--|--L--0--0--0--0----0----|--L--------0--0--0--3--|


     PM PM PM                       PM PM PM          PM PM PM                 
------------------------|-----------------------|------------------------|
------------------------|-----------------------|------------------------|
------------------------|-----------------------|------------------------|
------------------------|-----------------------|------------------------|
--L--3--3--3--3----3----|--L--------3--3--3--6--|--L--6--6--6--6----6----|
--L--3--3--3--3----3----|--L--------3--3--3--6--|--L--6--6--6--6----6----|


       PM PM                   PM PM PM                   PM PM              
-------------------------|------------------------|-------------------------|
-------------------------|------------------------|-------------------------|
-------------------------|------------------------|-------------------------|
-------------------------|--------------7---------|-------------------------|
--L----0--0--6--5--3--0--|--L--0--0--0--5----0----|--L----0--0--1--1--1--0--|
--L----0--0--6--5--3--0--|--L--0--0--0-------0----|--L----0--0--1--1--1--0--|


     PM PM PM                       PM PM PM          PM PM PM                 
------------------------|-----------------------|------------------------|
------------------------|-----------------------|------------------------|
------------------------|-----------------------|------------------------|
------------------------|-----------------------|------------------------|
--L--0--0--0--0----0----|--L--------0--0--0--3--|--L--3--3--3--3----3----|
--L--0--0--0--0----0----|--L--------0--0--0--3--|--L--3--3--3--3----3----|


           PM PM PM          PM PM PM                   PM PM                 
-----------------------|------------------------|-------------------------|
-----------------------|------------------------|-------------------------|
-----------------------|------------------------|-------------------------|
-----------------------|------------------------|-------------------------|
--L--------3--3--3--6--|--L--6--6--6--6----6----|--L----0--0--6--5--3--0--|
--L--------3--3--3--6--|--L--6--6--6--6----6----|--L----0--0--6--5--3--0--|




	Verse:
-------------------------|--------------------------|-------------------------|
-------------------------|--------------------------|-------------------------|
-------------------------|--------------------------|-------------------------|
-------------------------|--------------------------|--------7----7--7--7-----|
-------0-----0-----0-----|--0-----0-----1--1--1--0--|--L--0--5----5--5--5--0--|
-------0-----0-----0-----|--0-----0-----1--1--1--0--|--L--0----------------0--|


-------------------------|-------------------------|-------------------------|
-------------------------|-------------------------|-------------------------|
-------------------------|-------------------------|-------------------------|
--------7----7--7--7-----|--------5----5--5--5-----|--------8----8--8--8-----|
--L--0--5----5--5--5--0--|--L--0--3----3--3--3--0--|--L--0--6----6--6--6--0--|
--L--0----------------0--|--L--0----------------0--|--L--0----------------0--|


   
-------------------------|-------------------------|-------------------------|
-------------------------|-------------------------|-------------------------|
-------------------------|-------------------------|-------------------------|
--------7----7--7--7-----|--------7----7--7--7-----|--------5----5--5--5-----|
--L--0--5----5--5--5--0--|--L--0--5----5--5--5--0--|--L--0--3----3--3--3--0--|
--L--0----------------0--|--L--0----------------0--|--L--0----------------0--|


-------------------------|-------------------------|-------------------------|
-------------------------|-------------------------|-------------------------|
-------------------------|-------------------------|-------------------------|
--------8----------------|--------7----7--7--7-----|--------7----7--7--7-----|
--L--0--6----x--x--x--0--|--L--0--5----5--5--5--0--|--L--0--5----5--5--5--0--|
--L--0-------x--x--x--0--|--L--0----------------0--|--L--0----------------0--|


-------------------------|-------------------------|-------------------------|
-------------------------|-------------------------|-------------------------|
-------------------------|-------------------------|-------------------------|
--------5----5--5--5-----|--------8----8--8--8-----|--------7----7--7--7-----|
--L--0--3----3--3--3--0--|--L--0--6----6--6--6--0--|--L--0--5----5--5--5--0--|
--L--0----------------0--|--L--0----------------0--|--L--0----------------0--|


                                                                 PM PM PM PM  
-------------------------|-------------------------|-------------------------|
-------------------------|-------------------------|-------------------------|
-------------------------|-------------------------|-------------------------|
--------7----7--7--7-----|--------5----5--5--5-----|--------8----------------|
--L--0--5----5--5--5--0--|--L--0--3----3--3--3--0--|--L--0--6----0--0--0--0--|
--L--0----------------0--|--L--0----------------0--|--L--0-------0--0--0--0--|

   
-----------------------|-----------------------|-----------------------|
-----------------------|-----------------------|-----------------------|
-----------------------|-----------------------|-----------------------|
--7----------7---------|--7----------7---------|--5----------5---------|
--5--0----0--5------0--|--5--0----0--5------0--|--3--0----0--3------0--|
-----0----0---------0--|-----0----0---------0--|-----0----0---------0--|


-----------------------|-----------------------------|
-----------------------|-----------------------------|
-----------------------|-----------------------------|
--8----------8---------|-----------------------------|
--6--0----0--6------0--|--3h--4--4--3h--4--4--3h--4--|
-----0----0---------0--|--3h--4--4--3h--4--4--3h--4--|


               PM PM PM PM                                
---------------------------|-----------------------------|
---------------------------|-----------------------------|
---------------------------|-----------------------------|
---------------------------|-----------------------------|
--4--3h--4--4--0--0--0--0--|--3h--4--4--3h--4--4--3h--4--|
--4--3h--4--4--0--0--0--0--|--3h--4--4--3h--4--4--3h--4--|




	Pre Chorus:
                                 PM PM PM PM PM PM PM  
---------------------------|--------------------------|
---------------------------|--------------------------|
---------------------------|--------------------------|
---------------------------|--------------------------|
--4--3h--4--4--6--5--3--1--|--L--1--1--1--1--1--1--1--|
--4--3h--4--4--6--5--3--1--|--L--1--1--1--1--1--1--1--|


  PM PM PM PM PM PM PM                                
--------------------------|--------------------------|
--------------------------|--------------------------|
--------------------------|--------------------------|
--------------------------|--------------------------|
--1--1--1--1--1--1--1--6--|--L--6--6--6--6--6--6--6--|
--1--1--1--1--1--1--1--6--|--L--6--6--6--6--6--6--6--|




	Chorus:
                                PM PM PM                      PM PM PM        
--------------------------|-----------------------|-----------------------|
--------------------------|-----------------------|-----------------------|
--------------------------|-----------------------|-----------------------|
--------------------------|-----------------------|-----------------------|
--6--6--6--6--6--5--3--0--|--L--0--0--0--0--------|--L--------0--0--0--0--|
--6--6--6--6--6--5--3--0--|--L--0--0--0--0--------|--L--------0--0--0--0--|


     PM PM PM                       PM PM PM          PM PM PM                 
------------------------|-----------------------|------------------------|
------------------------|-----------------------|------------------------|
------------------------|-----------------------|------------------------|
------------------------|-----------------------|------------------------|
--L--0--0--0--0----0----|--L--------0--0--0--3--|--L--3--3--3--3----3----|
--L--0--0--0--0----0----|--L--------0--0--0--3--|--L--3--3--3--3----3----|


           PM PM PM          PM PM PM                   PM PM                 
-----------------------|------------------------|-------------------------|
-----------------------|------------------------|-------------------------|
-----------------------|------------------------|-------------------------|
-----------------------|------------------------|-------------------------|
--L--------3--3--3--6--|--L--6--6--6--6----6----|--L----0--0--6--5--3--0--|
--L--------3--3--3--6--|--L--6--6--6--6----6----|--L----0--0--6--5--3--0--|


     PM PM PM                   PM PM                   PM PM PM            
------------------------|-------------------------|------------------------|
------------------------|-------------------------|------------------------|
------------------------|-------------------------|------------------------|
--------------7---------|-------------------------|------------------------|
--L--0--0--0--5----0----|--L----0--0--1--1--1--0--|--L--0--0--0--0----0----|
--L--0--0--0-------0----|--L----0--0--1--1--1--0--|--L--0--0--0--0----0----|


           PM PM PM          PM PM PM                       PM PM PM     
-----------------------|------------------------|-----------------------|
-----------------------|------------------------|-----------------------|
-----------------------|------------------------|-----------------------|
-----------------------|------------------------|-----------------------|
--L--------0--0--0--3--|--L--3--3--3--3----3----|--L--------3--3--3--6--|
--L--------0--0--0--3--|--L--3--3--3--3----3----|--L--------3--3--3--6--|


     PM PM PM                   PM PM                                                   
------------------------|-------------------------|-------------------|
------------------------|-------------------------|-------------------|
------------------------|-------------------------|-------------------|
------------------------|-------------------------|-------------------|
--L--6--6--6--6----6----|--L----0--0--6--5--3--0--|--L----------------|
--L--6--6--6--6----6----|--L----0--0--6--5--3--0--|--L----------------|




Bridge/Outro:
-------------------|-------------------|-------------------|-------------------|
-------------------|-------------------|-------------------|-------------------|
-------------------|-------------------|-------------------|-------------------|
-------------------|-------------------|-------------------|-------------------|
--L----------------|--L----------------|--L----------------|--3----------------|
--L----------------|--L----------------|--L----------------|--3----------------|


-------------------|-------------------|-------------------|-------------------|
-------------------|-------------------|-------------------|-------------------|
-------------------|-------------------|-------------------|-------------------|
-------------------|-------------------|-------------------|-------------------|
--L----------------|--6----------------|--1----------------|--0----------------|
--L----------------|--6----------------|--1----------------|--0----------------|


-------------------|-------------------|-------------------|-------------------|
-------------------|-------------------|-------------------|-------------------|
-------------------|-------------------|-------------------|-------------------|
-------------------|-------------------|-------------------|-------------------|
--L----------------|--L----------------|--L----------------|--3----------------|
--L----------------|--L----------------|--L----------------|--3----------------|

                 
-------------------|-------------------|-------------------|
-------------------|-------------------|-------------------|
-------------------|-------------------|-------------------|
-------------------|-------------------|-------------------|
--L----------------|--6----------------|--1----------------|
--L----------------|--6----------------|--1----------------|


--------------------||
--------------------||
--------------------||
--------------------||
--0-----------------||
--0-----------------||






Tablature Legend
----------------
L - tied note
x - dead note
NH - natural harmonic
AH - artificial harmonic
PH - pitch harmonic
h - hammer on
p - pull off
b - bend
br - bendRelease
PM - Palm Mute

Добавлено: 22.06.2012
Другие материалы по этой песне:

Страница создана 15.05.2012
http://primanota.ru/deez-nuts/damn-right-chords.htm
Привет, Гость.
Предлагаем пройти революционный курс по гитаре.
Подарок от PrimaNota.Ru, забирай!