PrimaNota.ru - самый крупный в мире бесплатный архив песенных текстов, аккордов, табулатур и нот


Deerhunter - Snakeskin - таба, видео

Регистрация Запомнить меня
Войти через:  Facebook Google Twitter Vk Yandex Mail.ru

Deerhunter - Snakeskin - таба, видео

Печатать
Просмотров: 48
Авторы: Bradford Cox

Intro (play twice for transitions from chorus/bridge to verse0

E|--7--7--7--|
B|--7--7--7--|
G|--7--7--7--|
D|-----------|
A|-----------|
E|-----------|

Verse (listen for rhythm, this riff follows the Bo Diddley rhythm and I don't think I 
tabbed that out right)

    Am                      A
    1  +  2  +  3  +  4  +  1  +  2  +  3  +  4  +
E|--5-----5-----5-----5--5--5-----5-----5-----5--5--|
B|--5-----5-----5-----5--5--5-----5-----5-----5--5--|
G|--5-----5-----5-----5--5--6-----6-----6-----6--6--|
D|--------------------------------------------------|
A|--------------------------------------------------|
E|--------------------------------------------------|

Chorus/Bridge (arpeggiated, Am and E barre shapes)

C#m F# A G#

Outro (follows same beat as verse, listen for rhythm
E|--5--5--5--8--8--8--8--5--7--7--7--10--10--10--10--7--|
B|--5--5--5-----------------7--7--7---------------------|
G|--5--5--5-----------------7--7--7---------------------|
D|------------------------------------------------------|
A|------------------------------------------------------|
E|------------------------------------------------------|
Добавлено: 26.05.2016
Вам также может быть интересно:
Другие материалы по этой песне:
  • Аккорды и текст

Страница создана 26.05.2016
http://primanota.ru/deerhunter/snakeskin-chords.htm
Привет, Гость.
Предлагаем пройти революционный курс по гитаре.
Подарок от PrimaNota.Ru, забирай!