PrimaNota.ru - самый крупный в мире бесплатный архив песенных текстов, аккордов, табулатур и нот


Deerhunter - Operation - таба, видео

Регистрация Запомнить меня
Войти через:  Facebook Google Twitter Vk Yandex Mail.ru

Deerhunter - Operation - таба, видео

Печатать
Просмотров: 121
Уроки эстрадного вокала в Санкт-Петербурге
-------------------------------------------------------------------------------
                             OPERATION - Deerhunter
-------------------------------------------------------------------------------
Tabbed by: Gustavo Collado

Tuning: EADGBe


VERSE 1
(Operation, cover your ears, you're not gonna like what you're gonna hear...)

[Guitar 1]
e|-----(8-77)-|
B|------------|
G|-7-7--------| X4
D|-5-5--------|
A|-7-7--------|
E|-0-0--------|

[Guitar 2]
e|-(10-10)-8-77-|
B|-(8--8-)-8-77-|
G|--------------| X4
D|--------------|
A|--------------|
E|--------------|


CHORUS 1
(I hate you, I hate you...)

[Guitar 1]
e|---------|
B|-5-7-5-8-|
G|---------| X4
D|---------|
A|---------|
E|---------|


VERSE 2
(Operation, you're not here, you can't love what you can't like...)

[Guitar 1]
e|-----(8-77)-|
B|------------|
G|-7-7--------| X4
D|-5-5--------|
A|-7-7--------|
E|-0-0--------|

[Guitar 2]
e|-(10-10)-8-77-|
B|-(8--8-)-8-77-|
G|--------------| X4
D|--------------|
A|--------------|
E|--------------|


CHORUS 2
(What you fear, what you fear...)

[Guitar 1]
e|---------|
B|-5-7-5-8-|
G|---------| X4
D|---------|
A|---------|
E|---------|


VERSE 3
(Operation, cover your eyes, I don't wanna see you, I don't wanna see you...)

[Guitar 1]
e|-----(8-77)-|
B|------------|
G|-7-7--------| X4
D|-5-5--------|
A|-7-7--------|
E|-0-0--------|

[Guitar 2]
e|-(10-10)-8-77-|
B|-(8--8-)-8-77-|
G|--------------| X4
D|--------------|
A|--------------|
E|--------------|


CHORUS 3
(Not near me, Not near me...)

[Guitar 1]
e|---------|
B|-5-7-5-8-|
G|---------| X4
D|---------|
A|---------|
E|---------|


INTERLUDE 1 - PT. 1

[Guitar 1 (Keybord/Synth)]
e|--------------------------------------------|
B|--------------------------------------------|
G|-5r-7r-4r-2r-2r-222-4-5-777-5-4-222-4-5-777-| X2
D|-5r-5r-2r-2r-0r-----------------------------|
A|-3r-5r-2r-0r-0r-000-2-3-555-3-2-000-2-3-555-|
E|--------------------------------------------|


INTERLUDE 1 - PT. 2
(Operate, Operate, Operation, Operation, Operation)

[Guitar 1]
e|--------xx-x-x-|
B|--------xx-x-x-|
G|-77-7-9-xx-x-x-| X8
D|-55-5-x-xx-x-x-|
A|-77-7-9-xx-x-x-|
E|-00-0-0-xx-x-x-|

[Guitar 2]
e|--------------------10--10-----11---|
B|----10b/10----10b/10--10--10-----11-|
G|-(0)-------(0)----------------------|
D|------------------------------------|
A|------------------------------------|
E|------------------------------------|


VERSE 4
(Operation, cover your ears, you're not gonna like what you're gonna hear...)

[Guitar 1]
e|-----(8-77)-|
B|------------|
G|-7-7--------| X4
D|-5-5--------|
A|-7-7--------|
E|-0-0--------|

[Guitar 2]
e|-(10-10)-8-77-|
B|-(8--8-)-8-77-|
G|--------------| X4
D|--------------|
A|--------------|
E|--------------|


CHORUS 4
(I hate you, I hate you...)

[Guitar 1]
e|---------|
B|-5-7-5-8-|
G|---------| X4
D|---------|
A|---------|
E|---------|


VERSE 5
(Operation, you're not here, you can't love what you can't like...)

[Guitar 1]
e|-----(8-77)-|
B|------------|
G|-7-7--------| X4
D|-5-5--------|
A|-7-7--------|
E|-0-0--------|

[Guitar 2]
e|-(10-10)-8-77-|
B|-(8--8-)-8-77-|
G|--------------| X4
D|--------------|
A|--------------|
E|--------------|


CHORUS 5
(What you fear, what you fear...)

[Guitar 1]
e|---------|
B|-5-7-5-8-|
G|---------| X4
D|---------|
A|---------|
E|---------|


INTERLUDE 2
(Oh, how did you know? It was so easy to destroy her?...)

[Guitar 1 (Keybord/Synth)]
e|--------------------------------------------|
B|--------------------------------------------|
G|-5r-7r-4r-2r-2r-222-4-5-777-5-4-222-4-5-777-| X3
D|-5r-5r-2r-2r-0r-----------------------------|
A|-3r-5r-2r-0r-0r-000-2-3-555-3-2-000-2-3-555-|
E|--------------------------------------------|


VERSE 6
(Operation, cover your eyes, I don't wanna see you, I don't wanna see you...)

[Guitar 1]
e|-----(8-77)-|
B|------------|
G|-7-7--------| X4
D|-5-5--------|
A|-7-7--------|
E|-0-0--------|

[Guitar 2]
e|-(10-10)-8-77-|
B|-(8--8-)-8-77-|
G|--------------| X4
D|--------------|
A|--------------|
E|--------------|


CHORUS 6
(Not near me, Not near me...)

[Guitar 1]
e|---------|
B|-5-7-5-8-|
G|---------| X4
D|---------|
A|---------|
E|---------|

VERSE 7
(Operation, cover your ears, you're not gonna like what you're gonna hear...)

[Guitar 1]
e|-----(8-77)-|
B|------------|
G|-7-7--------| X4
D|-5-5--------|
A|-7-7--------|
E|-0-0--------|

[Guitar 2]
e|-(10-10)-8-77-|
B|-(8--8-)-8-77-|
G|--------------| X4
D|--------------|
A|--------------|
E|--------------|


CHORUS 7/OUTRO
(I hate you, I hate you...)

[Guitar 1]
e|---------|
B|-5-7-5-8-|
G|---------| X4 [While fading away]
D|---------|
A|---------|
E|---------|
Добавлено: 01.07.2012
Другие материалы по этой песне:
  • Аккорды и текст

Страница создана 01.07.2012
http://primanota.ru/deerhunter/operation-chords.htm
Привет, Гость.
Предлагаем пройти революционный курс по гитаре.
Подарок от PrimaNota.Ru, забирай!