PrimaNota.ru - самый крупный в мире бесплатный архив песенных текстов, аккордов, табулатур и нот


Deerhunter - Living My Life - таба, видео

Регистрация Запомнить меня
Войти через:  Facebook Google Twitter Vk Yandex Mail.ru

Deerhunter - Living My Life - таба, видео

Печатать
Просмотров: 40
Авторы: Bradford Cox

-------------------------------------------------------------------------------
                             LIVING MY LIFE - Deerhunter
-------------------------------------------------------------------------------
Tabbed by: markiiitu
E-mail: marcolucio27@gmail.com

Tuning: Standard

e|--2--4--|--6--2--|--1-----|
B|--2--6--|--7--4--|--2--4--|
G|--3--6--|--6--4--|--3--4--|
D|--4--6--|--8--4--|--3--6--|
A|--------|--------|-----6--|
E|--------|--------|--------|

************************************

| /   slide up
| \   slide down
| h   hammer-on
| p   pull-off
| ~   vibrato
| +   harmonic
| x   Mute note
| b   Bend
| pb  Pre-bend
| br  Bend release
| pbr Pre-bend release
| brb Bend release bend

************************************
Добавлено: 26.05.2016
Другие материалы по этой песне:
  • Аккорды и текст

Страница создана 26.05.2016
http://primanota.ru/deerhunter/living-my-life-chords.htm
Привет, Гость.
Предлагаем пройти революционный курс по гитаре.
Подарок от PrimaNota.Ru, забирай!