PrimaNota.ru - самый крупный в мире бесплатный архив песенных текстов, аккордов, табулатур и нот


Deerhunter - Helicopter - аккорды и текст, таба, видео

Регистрация Запомнить меня
Войти через:  Facebook Google Twitter Vk Yandex Mail.ru

Deerhunter - Helicopter - аккорды и текст, таба, видео

Печатать
Просмотров: 172
Helicopter
Deerhunter
=========================================================================================
HELICOPTER - Deerhunter
Tabbed by: Modest Meow 3/17/14

ABOUT: I love this song and was surprised to not find an in depth tab. It doesn't really 
have a chorus, rather 2 verses, I laid it out lyrically.
=========================================================================================
Lyrics:
Verse 1:
Take my hand and pray with me
My final days in company
The devil now has come for me
And helicopters circling the scene

Verse 2:
And I pray for rest
Could you pray for us?
We know he loves you the best
We know he loves you the best

Verse 1:
The light's inside my cave
I'm tired of my pains

Verse 2:
All, these drugs they play
On me in these terrible ways
They don't pay like they used to pay
I used to make it day to day

Verse 2:
No one cares for me
I keep no company
I have memories
And now they are through with me

Verse 2:
Now they are through with me
Now they are through with me
Now they are through with me
Now they are through with me
Now they are through with me
Now they are through with me
Now they are through with me
Now they are through with me

Composition:
Pre-Verse Drums, Verse 1, Verse 2, Verse 1, Verse 2, Verse 1, Verse 2, Bridge (similar 
to Verse 1), Verse 2, End

=========================================================================================
Verse 1 guitar tab:

E|--------------------------------------------------|
B|-9-10-9-7--------------9-10-9-7-------------------|
G|----------8-------88------------8-------88--------|
D|-------------77--------------------77-------------|
A|--------------------------------------------------|
E|--------------------------------------------------|

E|--------------------------------------------------|
B|-9-10-9-7--------------9-10-9-7-------------------|
G|----------8-------88------------8-------88--------|
D|-------------77--------------------77-------------|
A|--------------------------------------------------|
E|--------------------------------------------------|

Verse 1 notes:

G#/Ab A G#/Ab F#/Gb D#/Eb A A D#/Eb D#/Eb

=========================================================================================
Verse 2 tab:
E|--------------------------------------------------|
B|-9--------9--------9--------9---------------------|
G|-----88-------88-------88-------88----------------|
D|--------------------------------------------------|
A|--------------------------------------------------|
E|--------------------------------------------------|

E|--------------------------------------------------|
B|-9--------9--------9--------9---------------------|
G|-----88-------88-------88-------88----------------|
D|--------------------------------------------------|
A|--------------------------------------------------|
E|--------------------------------------------------|

Verse 2 chords:
C#m          E7M  
E|9          E|4
B|9          B|4
G|9          G|4
D|11         D|6
A|12         A|7
E|X          E|X

      C#m  E7M   E7M   C#m  E7M   E7M  
And I pray for rest
          C#m  E7M   E7M   C#m
Could you pray for us?
E7M   E7M        C#m  E7M   E7M   C#m
We know he loves you the best
E7M   E7M        C#m  E7M   E7M   C#m E7M   E7M  
We know he loves you the best

           C#m  E7M   E7M   C#m
All, these drugs they play
E7M   E7M     C#m  E7M   E7M   C#m
On me in these terrible ways
E7M   E7M                C#m  E7M   E7M   C#m
They don't pay like they used to pay
E7M   E7M           C#m  E7M   E7M   C#m  E7M   E7M  
I used to make it day to day

         C#m  E7M   E7M   C#m
No one cares for me
E7M   E7M   C#m  E7M   E7M   C#m  E7M   E7M  
I keep no company
       C#m  E7M   E7M   C#m
I have memories
E7M   E7M        C#m  E7M   E7M   C#m  E7M   E7M  
And now they are through with me

             C#m  E7M   E7M   C#m  E7M   E7M  
Now they are through with me

Verse 2 notes:

G#/Ab D#/Eb D#/Eb
Добавлено: 03.05.2014
Другие материалы по этой песне:
  • Аккорды и текст

Страница создана 28.02.2012
http://primanota.ru/deerhunter/helicopter-chords.htm
Привет, Гость.
Предлагаем пройти революционный курс по гитаре.
Подарок от PrimaNota.Ru, забирай!