PrimaNota.ru - самый крупный в мире бесплатный архив песенных текстов, аккордов, табулатур и нот


Deerhunter - Green Jacket - таба, видео

Регистрация Запомнить меня
Войти через:  Facebook Google Twitter Vk Yandex Mail.ru

Deerhunter - Green Jacket - таба, видео

Печатать
Просмотров: 86
Deerhunter
Green Jacket
From the album "Microcastle"

There is some guitar in the background of the first half,
mainly just playing this F chord:
e|---8----|
B|---10---|
G|---10---|
D|---10---|
A|---8----|
E|--------|

The rest of this tab is what the piano plays.
The piano switches between two patterns throughout the song, with slight variations.

Riff 1
e|-----0--------------0---------|-----0--------------0----------|
B|------------10-------------10-|------------10-------------10--|
G|--------10-------------10-----|--------10-------------10------|
D|-10-------------10------------|-10-------------10-------------|
A|------------------------------|-------------------------------|
E|------------------------------|-------------------------------|

Riff 1*
e|-----0--------------0---------|-----0--------------0----------|---8~--10~--7~--|
B|------------10-------------10-|------------10-------------10--|----------------|
G|--------10-------------10-----|--------10-------------10------|----------------|
D|-10-------------10------------|-10-------------10-------------|----------------|
A|------------------------------|-------------------------------|----------------|
E|------------------------------|-------------------------------|----------------|

Riff 2
e|-----0--------------0---------|-----0--------------0----------|
B|------------8--------------8--|------------8--------------8---|
G|--------10-------------10-----|--------10-------------10------|
D|-10-------------10------------|-10-------------10-------------|
A|------------------------------|-------------------------------|
E|------------------------------|-------------------------------|


Intro (0:06-0:13):      

RIFF 1

Verse: (0:13-1:20):

       (RIFF 1)     (RIFF 1)
     I take what I can
       (RIFF 2)         (RIFF 1)
     I give what I have left
       (RIFF 1)     (RIFF 2)
     I take by the hand
            (RIFF 1*)
     What I need, what I see

Bridge (1:21-1:37): 
        
e|--------7~~~----------7~~~-|
B|-8~~~---6~~~---8~~~---6~~~-|
G|-7~~~---5~~~---7~~~---5~~~-|
D|---------------------------|
A|---------------------------|
E|---------------------------|


Outro (1:38-end):       
        
e|-----0--------------0---------|-----0--------------0----------|
B|------------10-------------10-|------------8--------------8---|
G|--------10-------------10-----|--------10-------------10------|
D|-10-------------10------------|-10-------------10-------------|
A|------------------------------|-------------------------------|
E|------------------------------|-------------------------------|

e|-----0--------------0---------|-----0-------------------------|
B|------------10----------------|------------8------------------|
G|--------10-------------10-----|--------10---------------------|
D|-10-------------10------------|-10-------------10-------------|
A|------------------------------|-------------------------------|
E|------------------------------|-------------------------------|

And that's it! 
Добавлено: 31.08.2013
Другие материалы по этой песне:
  • Аккорды и текст

Страница создана 31.08.2013
http://primanota.ru/deerhunter/green-jacket-chords.htm
Привет, Гость.
Предлагаем пройти революционный курс по гитаре.
Подарок от PrimaNota.Ru, забирай!