PrimaNota.ru - самый крупный в мире бесплатный архив песенных текстов, аккордов, табулатур и нот


Deerhunter - Fountain Stairs - бас-таба, видео

Регистрация Запомнить меня
Войти через:  Facebook Google Twitter Vk Yandex Mail.ru

Deerhunter - Fountain Stairs - бас-таба, видео

Печатать
Просмотров: 22
Verse
G|-------------------------------------------|
D|-------------------------------------------|
A|12(x8)--------12(x8)----------------9----9-|
E|-------10(x8)--------10-10-10-10-10---10---| x4

Chorus
G|-----------------------------------------------------------------------|
D|--------------12(x8)----------------------12(x8)-------------12---11---|
A|10(x8)-12(x8)--------12(x8)-10(x8)-12(x8)--------12-12-12-12-----------|
E|-----------------------------------------------------------------------|

G|----------------------------------------|
D|----------------------------------------|
A|------------5---4---------------5---4---|
E|3(x8)-5(x4)---------3(x8)-5(x4)---------|x2

Verse
G|-------------------------------------------|
D|-------------------------------------------|
A|12(x8)--------12(x8)----------------9----9-|
E|-------10(x8)--------10-10-10-10-10---10---| x4

Chorus
G|-----------------------------------------------------------------------|
D|--------------12(x8)----------------------12(x8)-------------12---11---|
A|10(x8)-12(x8)--------12(x8)-10(x8)-12(x8)--------12-12-12-12-----------|
E|-----------------------------------------------------------------------|

G|----------------------------------------|
D|----------------------------------------|
A|------------5---4---------------5---4---|
E|3(x8)-5(x4)---------3(x8)-5(x4)---------|x4


May be possible slight one or two note variations once in awhile and they are hard to pick out but the song 
seems to follow the tab for the most part.
Добавлено: 24.11.2015
Другие материалы по этой песне:

Страница создана 08.03.2012
http://primanota.ru/deerhunter/fountain-stairs-chords.htm
Привет, Гость.
Предлагаем пройти революционный курс по гитаре.
Подарок от PrimaNota.Ru, забирай!