PrimaNota.ru - самый крупный в мире бесплатный архив песенных текстов, аккордов, табулатур и нот


Deerhoof - Wrong Time Capsule - текст песни, таба, видео

Регистрация Запомнить меня
Войти через:  Facebook Google Twitter Vk Yandex Mail.ru

Deerhoof - Wrong Time Capsule - текст песни, таба, видео

Печатать
Просмотров: 229
Уроки эстрадного вокала в Санкт-Петербурге
DEEEEEEEEEERRRRRHHOOOOOOOOOFF
Wrong Time Capsule
The Runners Four

Main Riff, Verse
e|--------------------------------------------------------------------|
B|--------------------------------------------------------------------|
G|-----7---9-----14-12-------5------7-------------9-------------------| three
D|-7h9---9---7---xx-xx---5-5-5--7-7-7------9--9-9-9-------------------| times
A|---------------12-10---3-3-3--5-5-5--9-9-9--7-7-7-------------------|
E|-------------------------------------7-7-7--------------------------|

For the forth time (all verses)
e|--------------------------------------------------------------------|
B|---------------------------------------------------5-3--------------|
G|-----7---9-----14-12-------5------7---------------------4-2---------|
D|-7h9---9---7---xx-xx---5-5-5--7-7-7------9--5----------------5-2----|
A|---------------12-10---3-3-3--5-5-5--9-9-9--5-----------------------|
E|-------------------------------------7-7-7--3-----------------------|

Solo One (play this two times or make up your own solo, this is the cd)
e|-------------------------------------------------------------------------|
B|-12-10---------10-12--12-12-12-13-15-13----------13-15--15-15-15p13----15|
G|-------12-9-12--------------------------14-12-14--------------------12---|
D|-------------------------------------------------------------------------|
A|-------------------------------------------------------------------------|
E|-------------------------------------------------------------------------|

Verse again, same as above, after that

Interlude
e|-------------------------------------------------------------------------|
B|-------------------------------------------------------------------------|
G|-------------------------------------------------------------------------|
D|-------------------------------------------------------------------------|
A|-7--7-6-7---6--6-4-6---6-6--4--4---4--6h7-7------------------------------|
E|---------------------------------7----------4--7-------------------------|

e|---------------------------------------------------------------------|
B|----------------12-12h10-9-------------------------------------------|
G|---------------------------9-----------------------------------------|three
D|-5------7---9--------------------------------------------------------|times
A|-3------5---7--------------------------------------------------------|
E|---------------------------------------------------------------------|

Solo Two

Ok, seriously, I don't know how to play this solo, its a lot of noise and distortion, 
play high up and mess around and make noise, try and keep it close to the same key (G I 
but just go crazy
e|----------------------------------------------------------------------|
B|----------------------------------------------------------------------|
G|----------------------------------------------------------------------|
D|----------------------------------------------------------------------|
A|----------------------------------------------------------------------|
E|----------------------------------------------------------------------|

Outro
Play same as verse, or
e|--------------------------------------------------------------|
B|--------------------------------------------------------------|
G|-----7---9-----14-12------------------------------------------|
D|-7h9---9---7---xx-xx------------------------------------------| two times
A|---------------12-10---------5--7-5---------------------------|
E|-------------------------5-7--------7--5-3-0------------------|

Last Line
e|---------------------------------------------------------------------|
B|---------------------------------------------------------------------|
G|-----7---9-----14-12-------------------------------------------------|
D|-7h9---9---7---xx-xx-----------------------5-------------------------|
A|---------------12-10---------5--7-5-------------7-5------------------|
E|-------------------------5-7--------7--5-3-----------7-5--3-0--------|


| /  slide up
| \  slide down
| h  hammer-on
| p  pull-off
| ~  vibrato
| +  harmonic
| x  Mute note
Добавлено: 13.04.2012
Другие материалы по этой песне:
  • Аккорды и текст

Страница создана 13.04.2012
http://primanota.ru/deerhoof/wrong-time-capsule-chords.htm
Привет, Гость.
Предлагаем пройти революционный курс по гитаре.
Подарок от PrimaNota.Ru, забирай!