PrimaNota.ru - самый крупный в мире бесплатный архив песенных текстов, аккордов, табулатур и нот


Deerhoof - The Galaxist - таба, видео

Регистрация Запомнить меня
Войти через:  Facebook Google Twitter Vk Yandex Mail.ru

Deerhoof - The Galaxist - таба, видео

Печатать
Просмотров: 92
From the album Friend Opportunity:
(acoustic)
---5--5--5--5--5--5--7--7--7--7--7--7---|
-7--7--7--7--7--7-----------------------|
-------------------9--9--9--9--9--9--9--|
--7--7--7--7--7--7--9--9--9--9--9--9--9-|
----------------------------------------|
----------------------------------------|
             x2        x2             x2
--------------  --------  --------------|
---4--5--6--5-  ---6--6-  ---4--5--6--5-|
--4--4--4--4--  --8--8--  --4--4--4--4--|
-6--6--6--6---  -8--8---  -6--6--6--6---|
--------------  --------  --------------|
--------------  --------  --------------|
      x4
--------|
---6--6-|
--8--8--|
-8--8---|
--------|
--------|
(electric guitar shriek)
-7-------------------4----------------|
--------------------------------------|
--------------------------------------|
--------------------------------------|
--------------------------------------|
--------------------------------------|
(acoustic guitar)
---5--5--5--5--5--5--7--7--7--7--7--7-|
-7--7--7--7--7--7---------------------|
-------------------9--9--9--9--9--9---|
--7--7--7--7--7--7--9--9--9--9--9--9--|
--------------------------------------|
--------------------------------------|
(electric)x3
   --------  -------------|
   --------  -----11------|
   -9---11-  -9----11-----|
   -9-4-11-  -9-4---11-11-|
   -7-4-9--  -7-4---------|
   -7-2-9--  -7-2---------|
                     x8                x2
-----------------------  ----6-----7-6-4-|
-9------11-----12------  -4-4-4-4-4------|
--11-----11-----11-----  ----------------|
---11-11--11-11--11-11-  ----------------|
-----------------------  ----------------|
-----------------------  ----------------|

--9-9-----------------------------|
-9---12-----9------11-----12------|
------11-----11-----11-----11-----|
-------11-11--11-11--11-11--11-11-|
----------------------------------|
----------------------------------|
                     pause       pause
-2-0-0-2-0-0-2---0-0-     ---0-0-|
-2-0-4-2-0-4-2-6-4-4-     -6-4-4-|
-2-1-4-2-1-4-2-6-4-4-     -6-4-4-|
-0-2-4-0-2-4-0-6-4-4-     -6-4-4-|
---2-----2-----------     -------|
---0-----0-----------     -------|
              x8
---0-0-  -------  -2-0-0-2-0-0-|
-6-4-4-  -------  -2-0-4-2-0-4-|
-6-4-4-  -2-4---  -2-1-4-2-1-4-|
-6-4-4-  -2-4-2-  -0-2-4-0-2-4-|
-------  -0-2-2-  ---2-----2---|
-------  ---0-0-  ---0-----0---|

-2-0-0-0-4-5-6-7-|
-2-0-0-4-5-5-6-7-|
-2-1-1-4-4-6-7-8-|
-0-2-2-4-6-7-8-9-|
---2-2---7-7-8-9-|
---0-0---4-5-6-7-|

Enjoy.
Добавлено: 08.06.2012
Другие материалы по этой песне:
  • Аккорды и текст

Страница создана 08.06.2012
http://primanota.ru/deerhoof/the-galaxist-chords.htm
Привет, Гость.
Предлагаем пройти революционный курс по гитаре.
Подарок от PrimaNota.Ru, забирай!