PrimaNota.ru - самый крупный в мире бесплатный архив песенных текстов, аккордов, табулатур и нот


Deerhoof - Scream Team - текст песни, таба, видео

Регистрация Запомнить меня
Войти через:  Facebook Google Twitter Vk Yandex Mail.ru

Deerhoof - Scream Team - текст песни, таба, видео

Печатать
Просмотров: 154
http://www.killrockstars.com/bands/factsheets/deerhoof/ 

I'm surprised at the lack of Deerhoof.

Standard tuning, etc.

Scream Team (The Runner's Four)

Intro
e|-0------------------------------9------------------------------------|
B|-----10--------9-10-9-10-9-10-9---10---------------------------------|
G|--------11---------------------------11------------------------------| two
D|---------------------------------------------------------------------|times
A|---------------------------------------------------------------------|
E|---------------------------------------------------------------------|

e|-1----------------------------------10---8-8-------------------------|
B|-----11--------10-11-10-11-10-11-10----------------------------------|
G|--------12-----------------------------------------------------------|
D|---------------------------------------------------------------------|
A|---------------------------------------------------------------------|
E|---------------------------------------------------------------------|

Instrumental Part (four times)
e|-3-------3-------3-------3-3-3-3-------------------------------------|
B|-3-------3-------3-------3-3-3-3-------------------------------------|
G|-------------------------0-0-0-0-------------------------------------|
D|---------------------------------------------------------------------|
A|---------------------------------------------------------------------|
E|---3-5-3---3-5-3---3-5-3---------------------------------------------|

Next Part
e|---------------------------------------------------------------------|
B|-3-5-3-5-3-3---------------------------------------------------------|
G|---------------------------------------------------------------------|
D|---------------3-3---------------------------------------------------|
A|---------------3-3---------------------------------------------------|
E|---------------1-1---------------------------------------------------|

e|---------------------------------------------------------------------|
B|-5-6-5-6-------------------------------------------------------------|
G|---------------------------------------------------------------------|
D|-----------3---------------------------------------------------------|
A|-----------3---------------------------------------------------------|
E|-----------1---------------------------------------------------------|

e|---------------------------------------------------------------------|
B|-3-5-3-5-3-3---------------------------------------------------------|
G|---------------------------------------------------------------------|
D|---------------3-3---------------------------------------------------|
A|---------------3-3---------------------------------------------------|
E|---------------1-1---------------------------------------------------|

Instrumental Part (four times)
e|-3-------3-------3-------3-3-3-3-------------------------------------|
B|-3-------3-------3-------3-3-3-3-------------------------------------|
G|-------------------------0-0-0-0-------------------------------------|
D|---------------------------------------------------------------------|
A|---------------------------------------------------------------------|
E|---3-5-3---3-5-3---3-5-3---------------------------------------------|

After that...

A stranger's face is seen
e|---------------------------------------------------------------------|
B|-------13-11-10-13---------------------------------------------------|
G|-10-12-------------55555555555555555---------------------------------|
D|-------------------55555555555555555---------------------------------|
A|-------------------33333333333333333---------------------------------|
E|---------------------------------------------------------------------|

But is he on our team?
e|---------------------------------------------------------------------|
B|-------13-11-10-13---------------------------------------------------|
G|-10-12-------------55555555555555555---------------------------------|
D|-------------------55555555555555555---------------------------------|
A|-------------------33333333333333333---------------------------------|
E|---------------------------------------------------------------------|

The lights go out and everybody screams
e|---------------------------------------------------------------------|
B|-------13-11-10-11-10-------13---------------------------------------|
G|-10-12----------------12-10----88888888888888------------------------|
D|-------------------------------88888888888888------------------------|
A|-------------------------------66666666666666------------------------|
E|---------------------------------------------------------------------|

"Team!"
e|---------------------------------------------------------------------|
B|-13------------------------------------------------------------------|
G|----55555555555555555------------------------------------------------|
D|----55555555555555555------------------------------------------------|
A|----33333333333333333------------------------------------------------|
E|---------------------------------------------------------------------|

A friend who was a foe
e|---------------------------------------------------------------------|
B|-------13-11-10-13---------------------------------------------------|
G|-10-12-------------55555555555555555---------------------------------|
D|-------------------55555555555555555---------------------------------|
A|-------------------33333333333333333---------------------------------|
E|---------------------------------------------------------------------|

The quarter whistle is about to blow
e|---------------------------------------------------------------------|
B|-------13-11-10-11-10-------13---------------------------------------|
G|-10-12----------------12-10----88888888888888------------------------|
D|-------------------------------88888888888888------------------------|
A|-------------------------------66666666666666------------------------|
E|---------------------------------------------------------------------|

Then I go
e|---------------------------------------------------------------------|
B|-13-11---------------------------------------------------------------|
G|-------13------------------------------------------------------------|
D|----------6666666666666666-------------------------------------------|
A|----------6666666666666666-------------------------------------------|
E|----------4444444444444444-------------------------------------------|

Instrumental Part (three times)
e|-3-------3-------3-------3-3-3-3-------------------------------------|
B|-3-------3-------3-------3-3-3-3-------------------------------------|
G|-------------------------0-0-0-0-------------------------------------|
D|---------------------------------------------------------------------|
A|---------------------------------------------------------------------|
E|---3-5-3---3-5-3---3-5-3---------------------------------------------|

Second-to-last part
e|---------------------------------------------------------------------|
B|-5----5----6---------------------------------------------------------|
G|---------------------------------------------------------------------|
D|---------------------------------------------------------------------|
A|---------------------------------------------------------------------|
E|---------------------------------------------------------------------|

e|---------------------------------------------------------------------|
B|-5----5----8---------------------------------------------------------|
G|---------------------------------------------------------------------|
D|---------------------------------------------------------------------|
A|---------------------------------------------------------------------|
E|---------------------------------------------------------------------|

e|-----------6---------------------------------------------------------|
B|-8----8--------------------------------------------------------------|
G|---------------------------------------------------------------------|
D|---------------------------------------------------------------------|
A|---------------------------------------------------------------------|
E|---------------------------------------------------------------------|

Last Part (Three times)
e|---------------------------------------------------------------------|
B|-------------------4-------------------------------------------------|
G|-----------3-4-5-7---------------------------------------------------|
D|---4-5-6-7-----------------------------------------------------------|
A|-5-------------------------------------------------------------------|
E|---------------------------------------------------------------------|

That's it. email is nightlightknifefight@yahoo if there are any inquiries.
I think some of it may be wrong but this is how I play it.
Добавлено: 30.05.2012
Другие материалы по этой песне:
  • Аккорды и текст

Страница создана 27.05.2012
http://primanota.ru/deerhoof/scream-team-chords.htm
Привет, Гость.
Предлагаем пройти революционный курс по гитаре.
Подарок от PrimaNota.Ru, забирай!