PrimaNota.ru - самый крупный в мире бесплатный архив песенных текстов, аккордов, табулатур и нот


Deerhoof - Paradise Girls - таба, видео

Регистрация Запомнить меня
Войти через:  Facebook Google Twitter Vk Yandex Mail.ru

Deerhoof - Paradise Girls - таба, видео

Печатать
Просмотров: 134
Уроки эстрадного вокала в Санкт-Петербурге
----------------------------------------------------------------------------
                             Paradise Girls - Deerhoof
----------------------------------------------------------------------------
Tabbed by:JaaaayDeeee

E-mail:jdgilbert@ntlworld.com

Tuning: standard

I think for the 1st part you basically play harmonics on the 5th fret but you press 
so that the notes don't ring 

or alternatively play muted notes following this pattern

"Girls!"

Guitar 1

e|----------------------------|
B|----------------------------|
G|-5--5-5-5-5-5--5--5-5-5--5--|
D|----------------------------| x24
A|----------------------------|
E|----------------------------|



I'm not sure about this part, harmonics represented by "*" 
(+1 octave effect?)

Guitar 2 
comes in after 16th repeat of guitar one's part

e|-----------------------------|
B|-------------5*------------5*|
G|-----------------------------|
D|-----------------------------| x8
A|-2--2--5*-3*------2-2-5*-3*--|
E|-----------------------------|


e|-2h4p2----2h4p2-----2h4p2p0-2h4p2-2-|
B|-------2--------4-------------------|
G|------------------------------------| x9
D|------------------------------------|
A|------------------------------------|
E|------------------------------------|


Chorus:

Both guitars

e|-----------------------------4--------------|
B|-------------------------4-7---7-4----------|
G|----6--11--8--11---5-5-------------6-4------|
D|--------------------------------------------|
A|-9--7--12--9--12---6-6----------------------|
E|-7--5--10--7--10---4-4----------------------|
                                                } repeat x5
e|-----------------------------4-7-4----------|
B|-------------------------4-7-------7-4------|
G|----6--11--8--11---5-5----------------------|
D|--------------------------------------------|
A|-9--7--12--9--12---6-6----------------------|
E|-7--5--10--7--10---4-4----------------------|

Back to

Guitar 1

e|----------------------------|
B|----------------------------|
G|-5--5-5-5-5-5--5--5-5-5--5--| x12 
D|----------------------------| 
A|----------------------------|
E|----------------------------|

Guitar 2 
comes in after 8th repeat of guitar one's part

e|-----------------------------|
B|-------------5*------------5*|
G|-----------------------------|
D|-----------------------------| x4
A|-2--2--5*-3*------2-2-5*-3*--|
E|-----------------------------|



Bridge. thing

one guitar could be in charge of noise
while the other plays this

e|---------------------------------|
B|---------------------------------|
G|---------------------------------|
D|---------------------------------| x2
A|---------------------------------|
E|-5-7-7-7-(noise)-8-7-7-7-(noise)-|


Back to

Guitar 2

e|-2h4p2----2h4p2-----2h4p2p0-2h4p2-2-|
B|-------2--------4-------------------|
G|------------------------------------| x9
D|------------------------------------|
A|------------------------------------|
E|------------------------------------|


Chorus:

Both guitars

e|-----------------------------4--------------|
B|-------------------------4-7---7-4----------|
G|----6--11--8--11---5-5-------------6-4------|
D|--------------------------------------------|
A|-9--7--12--9--12---6-6----------------------|
E|-7--5--10--7--10---4-4----------------------|
                                                } repeat x5
e|-----------------------------4-7-4----------|
B|-------------------------4-7-------7-4------|
G|----6--11--8--11---5-5----------------------|
D|--------------------------------------------|
A|-9--7--12--9--12---6-6----------------------|
E|-7--5--10--7--10---4-4----------------------|

End on

e|-----------------------|
B|-----------------------|
G|----6--11--8--11---5-5-|
D|-----------------------|
A|-9--7--12--9--12---6-6-|
E|-7--5--10--7--10---4-4-|
Добавлено: 14.08.2015
Другие материалы по этой песне:
  • Аккорды и текст

Страница создана 14.08.2015
http://primanota.ru/deerhoof/paradise-girls-chords.htm
Привет, Гость.
Предлагаем пройти революционный курс по гитаре.
Подарок от PrimaNota.Ru, забирай!