PrimaNota.ru - самый крупный в мире бесплатный архив песенных текстов, аккордов, табулатур и нот


Deerhoof - Panda Panda - таба, видео

Регистрация Запомнить меня
Войти через:  Facebook Google Twitter Vk Yandex Mail.ru

Deerhoof - Panda Panda - таба, видео

Печатать
Просмотров: 128
                     Panda Panda - Deerhoof
-------------------------------------------------------------------------------
Tabbed by:makeup
Classic song for true deerhoof fans

Tuning:EADGBE

Intro

E|---------------------------------------------------------------------------|
B|------5------5-5---3-3--5------------6-----6-6--4-4--6---------------------|
G|----2------2----------------2------3-----3---------------3-----------------|
D|--4------4-----------------------5-----5-----------------------------------|
A|---------------------------------------------------------------------------|
E|---------------------------------------------------------------------------|

E|---------------------------------------------------------------------------|
B|------6------6-6---4-4--6----------6-----6-6--4-4-6------------------------|
G|----3------3--------------3------3-----3------------3----------------------|
D|--5------5---------------------5-----5-------------------------------------|
A|---------------------------------------------------------------------------|
E|---------------------------------------------------------------------------|

    Verse
E|---------------------------------------------------------------------------|
B|-----7------7--------------------------------------------------------------|
G|-----7------7---you get the idea-------------------------------------------|
D|-----7------7--------------------------------------------------------------|
A|-----5------5--------------------------------------------------------------|
E|---------------------------------------------------------------------------|

    Satomi melodic
E|---------------------------------------------------------------------------|
B|---7--5--7--5----5--7--5--7--10-7------------------------------------------|
G|---------------6-----------------------------------------------------------|
D|---------------------------------------------------------------------------|
A|---------------------------------------------------------------------------|
E|---------------------------------------------------------------------------|
     Panda panda panda


E|---------------------------------------------------------------------------|
B|---------------------------------------------------------------------------|
G|---------------------------------------------------------------------------|
D|----1-------1------1------1------1------1------1-------1-------1-----------|
A|-------4------4------4------4------4------4-------4-------4------4---------|
E|--2-------2----- 2------2------2------2------2-------2-------2-------------|

E|---------------------------------------------------------------------------|
B|------5------5-5---3-3--5------------5-----5-5--3-3--5---------------------|
G|----2------2----------------2------2-----2---------------2-----------------|
D|--4------4-----------------------4-----4-----------------------------------|
A|---------------------------------------------------------------------------|
E|---------------------------------------------------------------------------|

E|---------------------------------------------------------------------------|
B|---8-6-8-6--6-8-6-8-11-8---------------------------------------------------|
G|-----------7--------------repeat couple times------------------------------|
D|---------------------------------------------------------------------------|
A|---------------------------------------------------------------------------|
E|---------------------------------------------------------------------------|


 /  slide up
| \  slide down
| h  hammer-on
| p  pull-off
| ~  vibrato
| +  harmonic
| x  Mute note
===============================================================================
Добавлено: 26.02.2012
Другие материалы по этой песне:
  • Аккорды и текст

Страница создана 26.02.2012
http://primanota.ru/deerhoof/panda-panda-chords.htm
Привет, Гость.
Предлагаем пройти революционный курс по гитаре.
Подарок от PrimaNota.Ru, забирай!