PrimaNota.ru - самый крупный в мире бесплатный архив песенных текстов, аккордов, табулатур и нот


Deerhoof - Odyssey - текст песни, таба, видео

Регистрация Запомнить меня
Войти через:  Facebook Google Twitter Vk Yandex Mail.ru

Deerhoof - Odyssey - текст песни, таба, видео

Печатать
Просмотров: 147
"odyssey"
  -ddeeeerrhhooooff
    -from the 2005 album 'the runners four'
      -arranged for solo guitar and tabbed by R# major (fallacy13@gmail.com)
----------------------------------
 -83 bpm
   -standard tuning (EADGBE)
----------------------------------

|-----------------|-------------|----------------|----------------|----------------|
|-----------------|-------------|----------------|----------------|----------------|
|-----------------|-4--4--4--4--|-4--4--4--4--4--|-4--4--4--4--4--|-4--3~~~~~~~~---|
|-1-------5-------|-2--2--2--2--|-2--2--2--2--2--|-2--2--2--2--2--|-2--4~~~~~~-----|
|-----------------|-------------|----------------|----------------|----------------|
|-3-------5-------|-4--4--4--4--|-4--4--4--4--4--|-4--4--4--4--4--|-4--2~~~~~~~----|
  pirates on   an   odyssey, odyssey,              we...

|-----------------|-------------------------|----------------|----------------|
|-----------------|-------------------------|----------------|----------------|
|-3---------------|-4-----4-----4-----4-----|-4--4--4--4--4--|-4--4--4--4--4--|
|-1-------5-------|-2-----2-----2-----2-----|-2--2--2--2--2--|-2--2--2--2--2--|
|---------7-------|-------------------------|----------------|----------------|
|-3-------5-------|-4-----4-----4-----4-----|-4--4--4--4--4--|-4--4--4--4--4--|
 ask our captain   what will be, what will be                 when...

                                                   ( X 2 )
|--------0-------0-||--------0-------0-|-------0-------0--||-------0--------|------|
|----0-------0-----||----0-------0-----|---0-------0------||---0-------0----|-2~~~~|
|--6---6---6---6---||--6---6---6---6---|-6---6---6---6----||-6---6---6---6--|-3~~--|
|--6---6---6---6---||--6---6---6---6---|-6---6---6---6----||-6---6---6---6--|-4~~~-|
|------------------||------------------|------------------||----------------|-4~~--|
|--0---0---0---0---||--0---0---0---0---|-0---0---0---0----||-0---0---0---0--|-2~~--|
  ...winter is gone,          we might         be  wrong...


|-------------|-6-6-6-6-6-6-6-6-|-6-6-6-6-6-6-6-6-6-6-|-6-6-6-6-6-6-6-6-6----|s/
|-------------|-----------------|---------------------|-----------------6----|s/
|-3--4--5--6--|-4---4---4---4---|-4---4---4---4---4---|-4---4---4---4---4----|
|-1-----5-----|-2---2---2---2---|-2---2---2---2---2---|-2---2---2---2---2----|
|-------7-----|-----------------|---------------------|----------------------|
|-3-----5-----|-4---4---4---4---|-4---4---4---4---4---|-4---4---4---4---4----|
  my companions focus me, focus me                      on...

                                                   ( X 2 )
|-9-9-9-9-9-9-9-9----||-9-9-9-9-9-9-9-9-|-9-9-9-9-9-9-9-9-||
|-9-9-9-9-9-9-9-9----||-9-9-9-9-9-9-9-9-|-9-9-9-9-9-9-9-9-||
|-6---6---6---6------||-6---6---6---6---|-6---6---6---6---||
|-6---6---6---6------||-6---6---6---6---|-6---6---6---6---||
|-7---7---7---7------||-7---7---7---7---|-7---7---7---7---||
|-0---0---0---0----- ||-0---0---0---0---|-0---0---0---0---||
 the bright  real sun.         you're my         reason...


|-9-9-9-9-9-9-9--|-4~~~~~~~~|~(4)~~~~~~~-------|
|-9-9-9-9-9-9-9--|----------|------------------|
|-6---6---6---6--|-3~~~~~~~~|~(3)~~~~----------|
|-6---6---6---6--|----------|------------------|
|-7---7---7---7--|-4~~~~~~~~|~(4)~~~~~~--------|
|-0---0---0---0--|-2~~~~~~~~|~(2)~2-2-2-2-2-2--|
       ...to       go...

|-----------------|-----------------|-----------------|------------------|
|-4-4-4-4-4-4-4-4-|-4-4-4-4-4-4-4-4-|-4-4-4-4-4-4-4-4-|-4-4-4-4-4-4-4\---|
|-4-4-4-4-4-4-4-4-|-4-4-4-4-4-4-4-4-|-4-4-4-4-4-4-4-4-|-4-4-4-4-4-4-4\---|
|-4-4-4-4-4-4-4-4-|-4-4-4-4-4-4-4-4-|-4-4-4-4-4-4-4-4-|-4-4-4-4-4-4-4\---|
|-2-2-2-2-2-2-2-2-|-2-2-2-2-2-2-2-2-|-2-2-2-2-2-2-2-2-|-2-2-2-2-2-2-2\---|
|-2-2-2-2-2-2-2-2-|-2-2-2-2-2-2-2-2-|-2-2-2-2-2-2-2-2-|-2-2-2-2-2-2-2\---|
     care...less      whi....ther            i     be   led,

|-----------------|-----------------|-----------------|-----------0-0-0-0----|
|-4-4-4-4-4-4-4-4-|-4-4-4-4-4-4-4-4-|-4-4-4-4-4-4-4-4-|-4-4-4-4---0-0-0-0----|
|-4-4-4-4-4-4-4-4-|-4-4-4-4-4-4-4-4-|-4-4-4-4-4-4-4-4-|-4-4-4-4--------------|
|-4-4-4-4-4-4-4-4-|-4-4-4-4-4-4-4-4-|-4-4-4-4-4-4-4-4-|-4-4-4-4-S/6-6-6-6----|S\
|-2-2-2-2-2-2-2-2-|-2-2-2-2-2-2-2-2-|-2-2-2-2-2-2-2-2-|-2-2-2-2-S/6-6-6-6----|S\
|-2-2-2-2-2-2-2-2-|-2-2-2-2-2-2-2-2-|-2-2-2-2-2-2-2-2-|-2-2-2-2-S/4-4-4-4----|s\
     care...less      whi....ther            i     be   led,

                                rit.
|-0---0---0---0---0---0---0---0--|---0---0---0---0---0---0---0---0-|
|-3---3---3---3---3---3---3---3--|---3---3---3---3---3---3---3---3-|
|-0---0---0---0---0---0---0---0--|---0---0---0---0---0---0---0---0-|
|-2---2---2---2---2---2---2---2--|---2---2---2---2---2---2---2---2-|
|-2---2---2---2---2---2---2---2--|---2---2---2---2---2---2---2---2-|
|-0- -0---0---0---0---0---0---0--|---0---0---0---0---0---0---0---0-|
    how              long              will            we


|---0---0---0---0---0---0---0-----|-0-------0-------------|-0-------0~~~~~~~~~~~--|
|---3---3---3---3---3---3---3-----|-0-------0-------------|-0-------0~~~~~~~~~~---|
|---0---0---0---0---0---0---0-----|-2-------2-------------|-2-------2~~~~~--------|
|---2---2---2---2---2---2---2-----|-2-------2-------------|-2-------2~~~~~~~~-----|
|---2---2---2---2---2---2---2-----|-0-------0-------------|-0-------0~~~~~~~~~~~--|
|---0---0---0---0---0---0---0-----|-----------------------|-0-------0~~~~~~~~-----|
   last?                     out   on the sea, on the sea?  on the sea, on the sea?


|-----------------|-----9----9----9----9|-----9----9----9----9----9-|
|-----------------|---10---10---10---10-|---10---10---10---10---10--|
|-3---------------|--9----9----9----9---|--9----9----9----9----9----|
|-1-------5-------|---------------------|---------------------------|
|---------7-------|-0----0----0----0----|-0----0----0----0----0-----|
|-3-------5-------|---------------------|---------------------------|
  talking  people   happily, happily...

|-----9----9----9----9----9|-----4----4----4----4-|----4----4----4----4-|
|---10---10---10---10---10-|----2----2----2----2--|---2----2----2----2--|
|--9----9----9----9----9---|--2----2----2----2----|-2----2----2----2----|
|--------------------------|----------------------|---------------------|
|-0----0----0----0----0----|----------------------|---------------------|
|--------------------------|-2----2----2----2-----|2----2----2----2-----|
  when...           they're right,      feel wrong           you're my


|-----4----4----4----4-|2---------2~~~~~~~~-------|
|----2----2----2----2--|4---------4~~~~~~~~~~~~~--|
|--2----2----2----2----|4---------4~~~~~~~~~~~~~~~|
|----------------------|4---------4~~~~~~~~~~~~---|
|----------------------|2---------2~~~~~~~~~~~~~~-|
|-2----2----2----2-----|--------------------------|
  real home        out  on the sea, on the sea...
Добавлено: 09.04.2012
Другие материалы по этой песне:
  • Аккорды и текст

Страница создана 09.04.2012
http://primanota.ru/deerhoof/odyssey-chords.htm
Привет, Гость.
Предлагаем пройти революционный курс по гитаре.
Подарок от PrimaNota.Ru, забирай!