PrimaNota.ru - самый крупный в мире бесплатный архив песенных текстов, аккордов, табулатур и нот


Deerhoof - Milk Man - текст песни, бас-таба, видео

Регистрация Запомнить меня
Войти через:  Facebook Google Twitter Vk Yandex Mail.ru

Deerhoof - Milk Man - текст песни, бас-таба, видео

Печатать
Просмотров: 139
Intro:

G|------------------------|
D|------------------------|
A|-6---4---------4--------| x2
E|-------4---4-6---6-4-1-4|

G|---------------------|
D|--11-11-11-11-11-11--|
A|---------------------|
E|---------------------|

G|----------------------|
D|----------------------|
A|----------------------|    x5
E|-9-9-7-9-9-9-7-9-9----|

Verse 1:
                    x2                                                               x2
G|----------------------|----------------------------------------|----------------------|
D|----------------------|----------------------------------------|----------------------|
A|----------------------|----------------------------------------|----------------------|
E|-9-9-7-9-9-9-7-9-9----|-2-2-0-2-2-2-0-2-2-7-7-5-7-7-7-5-7-7----|-9-9-7-9-9-9-7-9-9----|

                                                           
                                                                          x2
G|-------------------------------------------------------|-------------------|
D|-------------------------------------7-7-5-7-7-7-5-7-7-|-------------------|
A|-7-7-5-7-7-7-5-7-7-------------------------------------|-------------------| 
E|-------------------5-5-3-5-5-5-3-5-5-------------------|-9-9-7-9-9-9-7-9-9-|

Verse 2: (same as verse 1)


Chorus:
                       x3
G|-------------------------|-----------------------|
D|-------------------------|-----------------------|
A|-6---4---------4---------|-----2-------2---------|
E|-------4---4-6---6-4-1-4-|-2-----2-2-4---4-2-4-2-|


G|---------------------|
D|--11-11-11-11-11-11--|
A|---------------------|
E|---------------------|

Bridge:

G|-------------------|
D|-------------------|
A|-------------------|   x8
E|-9-9-7-9-9-9-7-9-9-|


Verse 3:
                  x2                                                       x2
G|--------------------|-------------------------------------|-------------------|
D|--------------------|-------------------------------------|-------------------|
A|--------------------|-------------------------------------|-------------------|
E|-9-9-7-9-9-9-7-9-9--|-2-2-0-2-2-2-0-2-2-7-7-5-7-7-7-5-7-7-|-9-9-7-9-9-9-7-9-9-|


G|------------------------------------------------------------------------|
D|------------------------------------------------------------------------|
A|-7-7-5-7-7-7-5-7-7-------------------7-7-5-7-7-7-5-7-7------------------|
E|-------------------7-7-5-7-7-7-5-7-7-------------------5-5-3-5-5-5-3-5-5|

                                     x2
G|-------------------|-------------------|
D|-7-7-5-7-7-7-5-7-7-|-------------------|
A|-------------------|-------------------|
E|-------------------|-9-9-7-9-9-9-7-9-9-|
             
Chorus

Outro:

G|-------------------|
D|-------------------|
A|-------------------|  x4
E|-5-5-3-5-5-5-3-5-5-|


Добавлено: 14.08.2015
Другие материалы по этой песне:
  • Аккорды и текст

Страница создана 27.05.2012
http://primanota.ru/deerhoof/milk-man-chords.htm
Привет, Гость.
Предлагаем пройти революционный курс по гитаре.
Подарок от PrimaNota.Ru, забирай!