PrimaNota.ru - самый крупный в мире бесплатный архив песенных текстов, аккордов, табулатур и нот


Deerhoof - I Did Crimes For You - таба, видео

Регистрация Запомнить меня
Войти через:  Facebook Google Twitter Vk Yandex Mail.ru

Deerhoof - I Did Crimes For You - таба, видео

Печатать
Просмотров: 117
Hey all, it's been annoying me that there are no tabs from Deerhoof vs. Evil, so I 
decided to do some of them. This is the first, and I wont do the whole song, but i'll give 
you the basics. I'm surprised no-one has already done this.
I also have some Guitar Pro 5 tabs sitting around, so i'll upload some of those later. 
Hope you find this useful.
-Raideh

Main Riff
-----------------------------|E
-----------------------------|B
-9-9---8-8--9-9-x-8--8-8-8---|G
-8-8---7-7--8-8-x-7--7-7-7---|D
-9-9---9-9--9-9-x-9--9-9-9---|A
-----------------------------|E

second part of main riff, same thing, down two frets.
---------------------------|
---------------------------|
-7-7---6-6--7-7-x-6--6-6-6-|
-6-6---5-5--6-6-x-5--5-5-5-|
-7-7---7-7--7-7-x-7--7-7-7-|
---------------------------|

Pre-Chorus
---------------------------------------|
---------------------------------------|
--------12-x-x-12-x-x-12-x-x-12-x-x-12-|
--------12-x-x-12-x-x-12-x-x-12-x-x-12-|   3 Times
--------10-x-x-10-x-x-10-x-x-10-x-x-10-|
-0-0-0---------------------------------|


---------------------------------|
---------------------------------|
---------------------------------|
--------6-x-x-6-x-x-6-x-x-6-x-x-6|
--------6-x-x-6-x-x-6-x-x-6-x-x-6|
-4-4-4--4-x-x-4-x-x-4-x-x-4-x-x-4|

---------------------------------|
---------------------------------|
--------6-x-x-6-x-x-6-x-x-6-x-x-6|
--------6-x-x-6-x-x-6-x-x-6-x-x-6|
-4-4-4--4-x-x-4-x-x-4-x-x-4-x-x-4|
---------------------------------|

---------------------------------|
---------------------------------|
---------------------------------|
--------7-x-x-7-x-x-7-x-x-7-x-x-7|
--------7-x-x-7-x-x-7-x-x-7-x-x-7|
-5-5-5--5-x-x-5-x-x-5-x-x-5-x-x-5|

That's it for now, I have a guitar pro tab covering these parts on my computer 
somewhere, when I find it I will post that. Don't have time for the chorus, maybe later.
Добавлено: 13.06.2012
Другие материалы по этой песне:
  • Аккорды и текст

Страница создана 13.06.2012
http://primanota.ru/deerhoof/i-did-crimes-for-you-chords.htm
Привет, Гость.
Предлагаем пройти революционный курс по гитаре.
Подарок от PrimaNota.Ru, забирай!