PrimaNota.ru - самый крупный в мире бесплатный архив песенных текстов, аккордов, табулатур и нот


Deerhoof - Dummy Discards A Heart - таба, видео

Регистрация Запомнить меня
Войти через:  Facebook Google Twitter Vk Yandex Mail.ru

Deerhoof - Dummy Discards A Heart - таба, видео

Печатать
Просмотров: 109
-----------------------------------------------------------------------------
                             Dummy Discards a Heart - Deerhoof
-----------------------------------------------------------------------------
Tabbed by: david
Email: thischarmingman13@gmail.com

Tuning: all strings slightly tuned down from standard

e|---------------------------------------------------------------------------|
B|-------------------------------------8--6-66--8-7-66---8--6-66--8-7-66-----|
G|-8--6-66--8-7-66---8--6-66--8-7-66---8--6-66--8-7-66---8--6-66--8-7-66-----|
D|---------------------------------------------------------------------------|
A|---------------------------------------------------------------------------|
E|---------------------------------------------------------------------------|

e|---------------------------------------------------------------------------|
B|---------------------------------------------------------------------------|
G|--------------8-8H10-8-8--8H10-8-8-----------------8-8H10-8-8--8H10-8-8----|
D|-8-10--8-8-10-------------------------8-10--8-8-10-------------------------|
A|---------------------------------------------------------------------------|
E|---------------------------------------------------------------------------|

e|--------14-------16-------18----20-18-----20-18----------------------------|
B|--14/16----16/18----18/20----20--------20----------------------------------|
G|---------------------------------------------------------------------------|
D|---------------------------------------------------------------------------|
A|---------------------------------------------------------------------------|
E|---------------------------------------------------------------------------|

e|-------10-------8-------6---8--6-----8--6----------------------------------|
B|-14\12----12\10---10\-8---8--------8---------------------------------------|
G|---------------------------------------------------------------------------|
D|---------------------------------------------------------------------------|
A|---------------------------------------------------------------------------|
E|---------------------------------------------------------------------------|

e|---------------------------------------------------------------------------|
B|-16-13-13------16-13-13---------14-11-11--------14-11-11-------------------|
G|----------13------------13---------------11--------------11----------------|
D|---------------------------------------------------------------------------|
A|---------------------------------------------------------------------------|
E|---------------------------------------------------------------------------|

play F5 power chord with root on A string during this part
e|---------------------------------------------------------------------------|
B|----10-10-13-----15-15-18-----10-10-13----15-15-18-------------------------|
G|-10-----------15-----------10-----------15---------------------------------|
D|---------------------------------------------------------------------------|
A|---------------------------------------------------------------------------|
E|---------------------------------------------------------------------------|

e|---------------------------------------------------------------------------|
B|---------------------------------------------------------------------------|
G|-7-10-10--7-10-10--7-10-10--10---------------------------------------------|
D|-8-8--8---8-8--8---8-8--8---8----------------------------------------------|
A|---------------------------------------------------------------------------|
E|---------------------------------------------------------------------------|

e|---------------------------------------------------------------------------|
B|-------------------------------------8--6-66--8-7-66---8--6-66--8-7-66-----|
G|-8--6-66--8-7-66---8--6-66--8-7-66---8--6-66--8-7-66---8--6-66--8-7-66-----|
D|---------------------------------------------------------------------------|
A|---------------------------------------------------------------------------|
E|---------------------------------------------------------------------------|

e|---------------------------------------------------------------------------|
B|---------------------------------------------------------------------------|
G|--------------8-8H10-8-8--8H10-8-8-----------------8-8H10-8-8--8H10-8-8----|
D|-8-10--8-8-10-------------------------8-10--8-8-10-------------------------|
A|---------------------------------------------------------------------------|
E|---------------------------------------------------------------------------|

e|--------14-------16-------18----20-18-----20-18----------------------------|
B|--14/16----16/18----18/20----20--------20----------------------------------|
G|---------------------------------------------------------------------------|
D|---------------------------------------------------------------------------|
A|---------------------------------------------------------------------------|
E|---------------------------------------------------------------------------|

e|-------10-------8-------6---8--6-----8--6----------------------------------|
B|-14\12----12\10---10\-8---8--------8---------------------------------------|
G|---------------------------------------------------------------------------|
D|---------------------------------------------------------------------------|
A|---------------------------------------------------------------------------|
E|---------------------------------------------------------------------------|

e|---------------------------------------------------------------------------|
B|-16-13-13------16-13-13---------14-11-11--------14-11-11-------------------|
G|----------13------------13---------------11--------------11----------------|
D|---------------------------------------------------------------------------|
A|---------------------------------------------------------------------------|
E|---------------------------------------------------------------------------|

play F5 power chord with root on A string during this part
e|---------------------------------------------------------------------------|
B|----10-10-13-----15-15-18-----10-10-13----15-15-18-------------------------|
G|-10-----------15-----------10-----------15---------------------------------|
D|---------------------------------------------------------------------------|
A|---------------------------------------------------------------------------|
E|---------------------------------------------------------------------------|

e|---------------------------------------------------------------------------|
B|---------------------------------------------------------------------------|
G|-7-10-10--7-10-10--7-10-10--10---------------------------------------------|
D|-8-8--8---8-8--8---8-8--8---8----------------------------------------------|
A|---------------------------------------------------------------------------|
E|---------------------------------------------------------------------------|

e|---------------------------------------------------------------------------|
B|---------------------------------------------------------------------------|
G|---------------------------------------------------------------------------|
D|-13-11-13--13-11-13--13-11-13----------------------------------------------|
A|-14\12/14--14\12/14--14\12/14----------------------------------------------|
E|---------------------------------------------------------------------------|

e|---------------------------------------------------------------------------|
B|-6--9--11--12--1-----------------------------------------------------------|
G|-7--10-12--13--2-----------------------------------------------------------|
D|-8--11-15--14--3-----------------------------------------------------------|
A|-8--11-15--14--3-----------------------------------------------------------|
E|-6--9--13--12--1-----------------------------------------------------------|

************************************

| /   slide up
| \   slide down
| h   hammer-on
| p   pull-off
| ~   vibrato
| +   harmonic
| x   Mute note
| b   Bend
| pb  Pre-bend
| br  Bend release
| pbr Pre-bend release
| brb Bend release bend

************************************
Добавлено: 20.04.2012
Другие материалы по этой песне:
  • Аккорды и текст

Страница создана 20.04.2012
http://primanota.ru/deerhoof/dummy-discards-a-heart-chords.htm
Привет, Гость.
Предлагаем пройти революционный курс по гитаре.
Подарок от PrimaNota.Ru, забирай!