PrimaNota.ru - самый крупный в мире бесплатный архив песенных текстов, аккордов, табулатур и нот


Deerhoof - Believe Esp - бас-таба, видео

Регистрация Запомнить меня
Войти через:  Facebook Google Twitter Vk Yandex Mail.ru

Deerhoof - Believe Esp - бас-таба, видео

Печатать
Просмотров: 125
Авторы: Greg Saunier, Satomi Matsuzaki, John Dieterich

Track:Believe E.S.P.
Artist:Deerhoof
Album: Friend Opportunity
Tabbed By: Gornard

This was tabbed from the live version but it should be mostly the same.

Note: Satomi doesn't always play the same riff as the guitarist it seems, but alternates 
through the 3 riffs below. Theres also a 4th variation somewhere further up the neck 
i couldn't make out, it's only used once however (see riff2*) and is easily replaced with riff 2.

Standard Tuning
Pick style

Riff 1
G|--------------|--------------|--------------|
D|--------------|--------------|--------------|
A|-----5-5------|--------------|--------------|
E|-7-7----------|-7-7-0-0------|-4-4-3-3------|

Riff 2
G|--------------|--------------|----------------|
D|--------------|--------------|----------------|
A|-----5-5------|--------------|----------------|
E|-7-7----------|-7-7-0-0------|-4-4-3-3--34634-|

Riff 3
G|--------------|--------------|----------------|
D|--------------|--------------|----------------|
A|-----5-5------|--5-----------|----------------|
E|-7-7----------|-7-7522-------|-4-4-3-3--------|

Bridge 1
No Bass

Bridge 2
G|--------------|
D|--------------|
A|-4-0----------|
E|------24------|

G|--------------| x4
D|--------------|
A|-----4------4-|
E|-2-2----2-2---|

G|--------------|
D|--------------|
A|-4-0----------|
E|------24------|

Bridge 3
G|--------------|--------------|--------------|----------------|x2
D|--------------|--------------|--------------|----------------|
A|--------------|--------------|--------------|-9--------------|
E|---------7----|--7-7----7-7--|--7-7----7-7--|---10-79--------|

G|--------------|
D|--------------|
A|--------------|
E|-7~~~~~~------|

Order:
Riff 2
Riff 3
Riff 1
Riff 1
Riff 2
Riff 1
Bridge 1
Riff 2*
Riff 1
Bridge 2
Riff 3
Riff 1
Bridge 3
Outro (no bass)

My first full tab.
Добавлено: 21.04.2012
Другие материалы по этой песне:
  • Аккорды и текст

Страница создана 21.04.2012
http://primanota.ru/deerhoof/believe-esp-chords.htm
Привет, Гость.
Предлагаем пройти революционный курс по гитаре.
Подарок от PrimaNota.Ru, забирай!