PrimaNota.ru - самый крупный в мире бесплатный архив песенных текстов, аккордов, табулатур и нот


Deer Tick - Spend The Night - таба, видео

Регистрация Запомнить меня
Войти через:  Facebook Google Twitter Vk Yandex Mail.ru

Deer Tick - Spend The Night - таба, видео

Печатать
Просмотров: 74
Авторы: John McAuley

Song: Spend the Night
Artist: Deer Tick
tabbed by Wraphesh

standard tuning

key:
h = hammer-on
p = pull-of
b = bend
r = reverse bend, or release bend
/ = slide up
\ = slide down
s = slide p.m. = palm mute
t = right hand tap
+ = right hand tap
x = rhythm click or muted string
v = vibrato
~ = vibrato
(5) = ghost note, or optional note
<5>= harmonic

This tab is based off the way McAuley plays it in this vid
http://www.youtube.com/watch?v=UVWf536qQHE Just play this slowly until you get all the 
finger picking. Remember to
add a bit of swing to your picking get that countrified feel.

INTRO:
|---2---|--------2--------------|--------2--------------|
|---0---|--------------------0--|--------------------0--|
|---2---|-----2--------2--------|-----2--------2--------|
|---1---|-----------------1-----|-----------------1-----|
|---2---|--2--------------------|--2--------------------|
|-------|-----------2-----------|-----------2-----------|

|--------2--------------|-----2---2-2-0--|
|--------------------0--|-----0---0-0-0--|
|-----2--------2--------|-----2---2-2----|
|-----------------1-----|-----1---1-1----|
|--2--------------------|--2-------------|
|-----------2-----------|----------------|

VERSE:
|----------------------------[|----------0-------------------------------|
|-----0-----2----------2-----[|--0h2-------------2----0h2----------2-----|
|-----1-----------0h1--------[|-------------------------------0h1--------|
|-----2--------2----------2--[|-------2----------2---------2----------2--|
|-----2----------------------[|------------------------------------------|
|--0-----0-------------------[|--0----------0---------0------------------|

|----------0------------------------------------------|
|--0h2-------------2----0h2----------2----------2-----|
|-------------------------------0h1--------0H1--------|
|-------2----------2---------2----------2----------2--|
|-----------------------------------------------------|
|--0----------0---------0-----------------------------|

                                                 ENDING 1
|--------------------------------------------|]|---------------------|
|-----5-----------5-----------5-----------0--|]|-----0--0-2-0-----0--|
|-----6-----6-----------6-----------6--------|]|-----1--1-1-1-----1--|
|-----6--------6-----------6-----------6-----|]|-----2--2-2-2-----2--|
|--4-----------------4-----------------------|]|-----2--2-2-2-----2--|
|--------4-----------------------4-----------|]|--0------------0-----|

  ENDING 2
|-----------------------|
|-----0--0-2-0----------|
|-----1--1-1-1----------|
|-----2--2-2-2----------|
|-----2--2-2-2----------|
|--0-----------0--2--4--|

You play the bracketed portion twice. When you finish the first time play ENDING 1, and
repeat the brackets then ENDING 2 leads into the chorus.

CHORUS:
|--------------------------------------------|------------------------|
|-----2-----------2-----------2-----------2--|-----0--0-2-0--0--------|
|-----2-----2-----------2-----------2--------|-----1--1-1-1--1--------|
|-----2--------2-----------2-----------2-----|-----2--2-2-2--2--------|
|--0----------------0------------------------|-----2--2-2-2--2--0--1--|
|--------0-----------------------0-----------|--0---------------------|

|-----2--------------------------------------|--------------------|
|-----4-----------4-----------4-----------4--|-----0--0-2-0----0--|
|-----2-----2-----------2-----------2--------|-----1--1-1-1----1--|
|-----4--------4-----------4-----------4-----|-----2--2-2-2----2--|
|--2-----------------2-----------------------|-----2--2-2-2----2--|
|--------2-----------------------2-----------|--0-----------------|


BRIDGE:
|----------0-------------------------------|----------0---------------------2--2-2-0--|
|--0h2-------------2----0h2----------2-----|--0h2-------------2----0h2------0--0-0-0--|
|-------------------------------0h1--------|--------------------------------2--2-2----|
|-------2----------2---------2----------2--|-------2----------2---------2---1--1-1----|
|------------------------------------------|------------------------------2-----------|
|--0----------0---------0------------------|--0----------0---------0------------------|

SOLO:
|----------0-------------------------------|
|--0h2-------------2----0h2----------2-----|
|-------------------------------0h1--------|
|-------2----------2---------2----------2--|
|------------------------------------------|
|--0----------0---------0------------------|

|----------0------------------------------------------|
|--0h2-------------2----0h2----------2----------2-----|
|-------------------------------0h1--------0H1--------|
|-------2----------2---------2----------2----------2--|
|-----------------------------------------------------|
|--0----------0---------0-----------------------------|

|--------0-----------------5-----------------9----------9--|
|--------------2-----------------5-----------------10------|
|-----2-----------2-----6-----------6-----9-----------9----|
|----------------------------------------------------------|
|--0--------0--------0--------0--------0--------0----------|
|----------------------------------------------------------|

|--12-12-12-0------------------------|-----2--------------------------------|
|--10-10-10-0-----0--0-2-0--0--------|-----4-----------4-----------4--------|
|---9--9--9-------1--1-1-1--1--------|-----2-----2-----------2--------------|
|-----------------2--2-2-2--2--------|-----4--------4-----------4-----5--5--|
|-----------------2--2-2-2--2--0--1--|--2-----------------2-----------5--5--|
|--------------0---------------------|--------2-----------------------3--3--|

|--------------------|
|-----0--0-2-0----0--|
|-----1--1-1-1----1--|
|-----2--2-2-2----2--|
|-----2--2-2-2----2--|
|--0-----------------|

FINAL VERSE/CHORUS/OUTRO:
[|----------0-------------------------------|
[|--0h2-------------2----0h2----------2-----|
[|-------------------------------0h1--------|
[|-------2----------2---------2----------2--|
[|------------------------------------------|
[|--0----------0---------0------------------|

|----------0------------------------------------------|
|--0h2-------------2----0h2----------2----------2-----|
|-------------------------------0h1--------0H1--------|
|-------2----------2---------2----------2----------2--|
|-----------------------------------------------------|
|--0----------0---------0-----------------------------|

                                                 ENDING 1
|--------------------------------------------|]|--------------------|
|-----5-----------5-----------5-----------0--|]|-----0--0-2-0----0--|
|-----6-----6-----------6-----------6--------|]|-----1--1-1-1----1--|
|-----6--------6-----------6-----------6-----|]|-----2--2-2-2----2--|
|--4-----------------4-----------------------|]|-----2--2-2-2----2--|
|--------4-----------------------4-----------|]|--0-----------------|

  ENDING 2
|---------------------2----------------------------------------|
|-----0--0-2-0--------4--------0--0-0--3--3-3--2--2-2--1--1-1--|
|-----1--1-1-1--------2--REST--1--1-1--1--1-1--0--0-0--3--3-3--|
|-----2--2-2-2--------4--------2--2-2--0--0-0--2--2-2--2--2-2--|
|-----2--2-2-2--0--1--2--------2--2-2--2--2-2--0--0-0--3--3-3--|
|--0---------------------------0--0-0--0--0-0------------------|

|--2--X-2--X-2--X-2--X-----0--|
|--0--X-0--X-0--X-0--X-0---0--|
|--2--X-2--X-2--X-2--X-0---1--|
|--1--X-1--X-1--X-1--X-0---2--|
|--2--X-2--X-2--X-2--X-----2--|
|--------------------------0--|
Добавлено: 20.06.2013
Другие материалы по этой песне:
  • Аккорды и текст

Страница создана 20.06.2013
http://primanota.ru/deer-tick/spend-the-night-chords.htm
Привет, Гость.
Предлагаем пройти революционный курс по гитаре.
Подарок от PrimaNota.Ru, забирай!