PrimaNota.ru - самый крупный в мире бесплатный архив песенных текстов, аккордов, табулатур и нот


Deepfield - Into The Flood - таба, видео

Регистрация Запомнить меня
Войти через:  Facebook Google Twitter Vk Yandex Mail.ru

Deepfield - Into The Flood - таба, видео

Печатать
Просмотров: 135
Band: Deepfield
Song: Into the Flood
Tuning C# G# C# F# A# D#

Intro/chorus:
D|-----------------------------------------------|
A|-----------------------------------------------|
F|-----------------------------------------------|
C|--4~--------0~---------4------7------9---------|
G|--4~--------0~---------4------7------9---------|
C|--4~--------0~---------4------7------9---------|

Chorus part 2:
D|---------------------------------------------------------------|
A|---------------------------------------------------------------|
F|-------9-9------9-9----99--------13-13-------13-13-----13-13---|
C|-------x-x------x-x----xx---------x--x--------x--x------x--x---|
G|---444-7-7--444-7-7-44-77---000--11-11--000--11-11-----11-11---|
C|---444------444-----44------000---------000---------00---------|

Fill:
D|------------------------|
A|------------------------|
F|------------------------|
C|------------------------|
G|---7--9--4--7--9--------|
C|---7--9--4--7--9--------|

Verse: Clean
D|-----------------------------------------------|
A|-----------------------------------------------|
F|-----------------------------------------------|
C|--------14~------------------------------------|
G|-----12--------------12~-----------------------|
C|--12-----------12-12---------------------------|

then strum (not totally sure on this)
D|--------------------------------------------|
A|--------------------------------------------|
F|--6----6------------------------------------|
C|--4----0------------------------------------|
G|--4----0------------------------------------|
C|--4----0------------------------------------|

Fill:
D|---------------------------5-------5-----------|
A|-------7-5-----7-5-------5-------5-------------|
F|----66------66--------66------66---------------|
C|-----------------------------------------------|
G|-----------------------------------------------|
C|-----------------------------------------------|

Bridge:
D|-----------------------------------|------------|
A|-----------------------------------|------------|
F|-----------------------------------|------------|
C|-----------------------------------|---7~-------|
G|--0-0-0-0--7-7-7-9-9-9-9--4-4-4-4--|---7~-------|
C|--0-0-0-0--7-7-7-9-9-9-9--4-4-4-4--|---7~-------|
Добавлено: 26.07.2012
Другие материалы по этой песне:
  • Аккорды и текст

Страница создана 23.03.2012
http://primanota.ru/deepfield/into-the-flood-chords.htm
Привет, Гость.
Предлагаем пройти революционный курс по гитаре.
Подарок от PrimaNota.Ru, забирай!