PrimaNota.ru - самый крупный в мире бесплатный архив песенных текстов, аккордов, табулатур и нот


Deep Sea Diver - Ships - таба, видео

Регистрация Запомнить меня
Войти через:  Facebook Google Twitter Vk Yandex Mail.ru

Deep Sea Diver - Ships - таба, видео

Печатать
Просмотров: 115
tuning - standard

intro
e|-----------------------this x2--------------------------------------------|
b|--------------------------------------------------------------------------|
g|----------4-4-----------------4-4-----------------------------------------|
d|-----6-6-------6-6-------6-6-------6-------4-4--6-6--4-4-------4-4--6-6---|
a|4-4-----------------4-4---------------2-2-----------------2-2------------4|
e|--------------------------------------------------------------------------|
verse 1(continue intro)
Expressionless you stand withdrawn
Bleak as back roads you can't afford to ignore
C#m
All the time that we wasted
                             B
(can't understand this line)
C#m
All the time that we wasted
                                    B
And I'm the one that you don't love

prechorus
F#m   C#m       B
Slow, slow to a crawl
F#m            C#m        B
Your heart is turning away

I cannot stand the loss

chorus
A  
  I'll send the fleets out before you
F#m           C#m
Can blink an eye
A             B 
Look for the ships in the morning
riff
e|-----------------------|
b|-----------------------|
g|-9-9-9-9-11-6--4-4-4-6-|
d|-----------------------|
a|-----------------------|
e|-----------------------|
I will labor with both hands
A 
I'll send the fleets out before you
F#m          C#m
Can blink an eye
A             B 
Look for the ships in the morning
[riff]
I will labor with both hands

C#m B
verse 2- same as first
To prove my love, carve into stone
Hope lies lies behind your tender eyes

prechorus 2- same as first
Slow, slow to a crawl
Cause your heart is turning away
And I cannot bear the loss

Chorus 2- same as first
I'll send the fleets out before you
Can blink an eye
Look for the ships in the morning
I will labor with both hands

I'll send the fleets out before you
Can blink an eye
Look for the ships in the morning
e|----------------------|
b|----------------------|
g|9-9-9-9-11-6--4-4-4-6-|
d|----------------------|
a|----------------------|
e|----------------------|
I will hold you with both hands 
solo
e|---------------------------------------------------------------|
b|---------------------------------------------------------------|
g|9--9-11-6--4-4-4-6---9--9-11-13-11-9-6---9-9-9-9-11-6--4-4-4-6-|
d|---------------------------------------------------------------|
a|---------------------------------------------------------------|
e|---------------------------------------------------------------|
Добавлено: 03.10.2013
Вам также может быть интересно:
Другие материалы по этой песне:
  • Аккорды и текст

Страница создана 03.10.2013
http://primanota.ru/deep-sea-diver/ships-chords.htm
Привет, Гость.
Предлагаем пройти революционный курс по гитаре.
Подарок от PrimaNota.Ru, забирай!