PrimaNota.ru - самый крупный в мире бесплатный архив песенных текстов, аккордов, табулатур и нот


Deep Purple - Smooth Dancer - текст песни, таба, бас-таба, видео

Регистрация Запомнить меня
Войти через:  Facebook Google Twitter Vk Yandex Mail.ru

Deep Purple - Smooth Dancer - текст песни, таба, бас-таба, видео

Печатать
Просмотров: 399
SMOOTH DANCER

As recorded by Deep Purple
(From the 1973 Album WHO DO WE THINK WE ARE)

Words and Music by Blackmore, Gillan, Glover, Lord & Paice

Transcribed by Slowhand


Gtr I (E A D G B E) - 'Ritchie Blackmore - Electric Guitar'
Gtr II (E A D G B E) - 'Ritchie Blackmore - Electric Guitar'


 Intro               1st & 3rd Verses
  Q=170
  N.C.                N.C.
 4/4
  Gtr I
  E E E E E E E E     +E  E Q  Q  E E   +E  E Q  Q  E E
|-----------------||------------------|-----------------|
|-----------------||o-----------------|-----------------|
|-----------------||------------------|-----------------|
|-----------------||------------------|-----------------|
|---------6-5-3---||o---------------3-|-(3)-------------|
|---0-3-5-------3-||--(3)-5-------x---|-----5-------5-3-|


  +E  E Q  Q  E E   E E E E E E E E   +E  E Q  Q  E E   +E  E Q  Q  E E
|-----------------|-----------------|-----------------|-----------------|
|-----------------|-----------------|-----------------|-----------------|
|-----------------|-----------------|-----------------|-----------------|
|-----------------|-----------------|-----------------|-----------------|
|-----------------|---------6-5-3---|---------------3-|-(3)-------------|
|-(3)-5-------5---|---0-3-5-------3-|-(3)-5-------x---|-----5-------5-3-|


                                      2nd & 4th Verses
                                       N.C.                                G5
  +E  E Q  Q  E E   E E E E E E E E    +E  E Q   Q   E E   +E  E Q   Q   E E
|-----------------|-----------------||-------------------|-------------------|
|-----------------|-----------------||-------------------|-------------------|
|-----------------|-----------------||-------------------|-------------------|
|-----------------|-----------------||-------------------|-----------------5-|
|-----------------|---------6-5-3---||-----------------3-|-(3)-------------5-|
|-(3)-5-------5---|---0-3-5-------3-||-(3)-5---------x---|-----5---------5-3-|
|
| Gtr II
|                                       PM---------------------------------|
|  W                W                   E  E E E E E E E    E  E E E E E E E
|-----------------|-----------------||-------------------|-------------------|
|-----------------|-----------------||-------------------|-------------------|
|-----------------|-----------------||-------------------|-------------------|
|-----------------|-----------------||-------------------|-------------------|
|-----------------|-----------------||-------------------|-------------------|
|-----------------|-----------------||--5--5-5-5-5-5-5-5-|--5--5-5-5-5-5-5-5-|


      A5
  +E  E +H.             +E  E E E E E E E
|---------------------|-------------------|
|---------------------|-------------------|
|---------------------|-------------------|
|-(5)-7-(7)-----------|-(7)---------------|
|-(5)-7-(7)-----------|-(7)-------6-5-3---|
|-(3)-5-(5)-----------|-(5)-0-3-5-------3-|
|
|  PM--------------------------------------
|  E  E  E  E E E E E    E  E E E E E E E
|---------------------|-------------------|
|---------------------|-------------------|
|---------------------|-------------------|
|---------------------|-------------------|
|---------------------|-------------------|
|--5--5--5--5-5-5-5-5-|--5--5-5-5-5-5-5-5-|


  +E  E Q   Q   E E   +E  E Q   Q   E E
|-------------------|-------------------|
|-------------------|-------------------|
|-------------------|-------------------|
|-------------------|-----------------5-|
|-----------------3-|-(3)-------------5-|
|-(3)-5---------x---|-----5---------x-3-|
|
|-------------------------------------|
|  E  E E E E E E E    E  E E E E E E E
|-------------------|-------------------|
|-------------------|-------------------|
|-------------------|-------------------|
|-------------------|-------------------|
|-------------------|-------------------|
|--5--5-5-5-5-5-5-5-|--5--5-5-5-5-5-5-5-|


  +E  E +H.             +E  E E E E E E E
|---------------------|-------------------||
|---------------------|-------------------||
|---------------------|-----------5-------||
|-(5)-7-(7)-----------|-(7)---5-7---7-5---||
|-(5)-7-(7)-----------|-(7)-7-----------7-||
|-(3)-5-(5)-----------|-(5)---------------||
|
|  PM-----------------------------------|
|  E  E  E  E E E E E    E  E E E E E E E
|---------------------|-------------------||
|---------------------|-------------------||
|---------------------|-------------------||
|---------------------|-------------------||
|---------------------|-------------------||
|--5--5--5--5-5-5-5-5-|--5--5-5-5-5-5-5-5-||


 Chorus
  H.      E E   +E  E +Q    E  E E E
|-------------|----------------------|
|-------------|----------------------|
|-5-------x---|----------------------|
|-----------5-|-(5)-7-(7)\-------5---|
|-------------|---------------/7---7-|
|-------------|----------------------|
|
| W              W
|-------------|----------------------|
|-------------|----------------------|
|-------------|----------------------|
|-------------|----------------------|
|-------------|----------------------|
|-------------|----------------------|


  H.      E E   +E   E Q  E  E E E   H.      E E   +E  E +Q    E E E E
|-------------|--------------------|-------------|---------------------|
|-------------|--------------------|-------------|---------------------|
|-5-----------|--------------------|-5-----------|---------------------|
|-5---------7-|-(7)\-----------5-7-|-5---------5-|-(5)-7-(7)\------5-7-|
|-----------7-|-(7)\--------/7-----|-----------5-|-(5)-7-(7)\----7-----|
|-------------|--------------------|-------------|---------------------|


  ~
  Q  E E +E  E E E   E   +E  E E   +E  E E E   E E E E E E E E
|------------------|-------------------------|-----------------|
|------------------|-------------------------|-----------------|
|-5----5-(5)---5---|-5b6-(5)---5b6-(5)---5---|-5-6-7-----------|
|----7-------7---7-|---------7---------7---7-|-------5-6-7-----|
|------------------|-------------------------|-------------3h4-|
|------------------|-------------------------|-----------------|


                    Bridge
                         A                                    G     D
  E Q  E +E  Q  E    E E E E Q  E a  E    +Q    E E E E E E   Q  Q  Q  E E
|-----------------||-------------------|--------------------|---------------|
|-----------------||-------------------|--------------------|---------------|
|-----------------||------------5-5s10-|-(10)\--------------|------------5--|
|-----------------||-----7------5-5s10-|-(10)\--------------|-------7----5--|
|-5---------------||-----7-------------|--------x-x-x-x-x-x-|-5-----5-------|
|---0--1-(1)-2--3-||-3s5-5-------------|--------x-x-x-x-x-x-|-3-------------|


  A                      G A                                 G     D    A
  +E  E +Q   +Q    E E   E E +H     E E   +Q   E E E E E E   Q  Q  Q  E E
|----------------------|----------------|------------------|--------------|
|----------------------|----------------|------------------|--------------|
|-(5)------------------|----------------|------------------|--------------|
|-(5)-7-(7)--(7)\--x-5-|-5s7-(7)----5s7-|-(7)--------------|-------7----7-|
|-----7-(7)--(7)\--x-5-|-5s7-(7)----5s7-|-(7)--x-x-x-x-x-x-|-5-----5----7-|
|----------------------|-3s5-(5)----3s5-|-(5)--x-x-x-x-x-x-|-3----------5-|


                F#      A        G A                      G     D    A
  +Q   Q  E E E E   +E  E +H     E E   +Q   E E E E E E   Q  Q  Q  E E
|-----------------|------------------|------------------|--------------|
|-----------------|------------------|------------------|--------------|
|-----------------|------------------|------------------|--------------|
|-(7)-----7-7-x-4-|-(4)s7-(7)----5s7-|-(7)--------------|-------7----7-|
|-(7)-----7-7-x-4-|-(4)s7-(7)----5s7-|-(7)--x-x-x-x-x-x-|-5-----5----7-|
|-(5)-----5-5-x-2-|-(2)s5-(5)----3s5-|-(5)--x-x-x-x-x-x-|-3----------5-|


             G   A          G   A                      G     D    A
  +H.      E E   E E +H     E S S   +Q   E E E E E E   Q  Q  Q  E E
|--------------|------------------|------------------|---------------|
|--------------|------------------|------------------|---------------|
|--------------|------------------|------------------|---------------|
|-(7)--------5s|=7-7-(7)----5-5s7-|-(7)--------------|-------7----7--|
|-(7)--------5s|=7-7-(7)----5-5s7-|-(7)--x-x-x-x-x-x-|-5-----5----7--|
|-(5)--------3s|=5-5-(5)----3-3s5-|-(5)--x-x-x-x-x-x-|-3----------5--|


                 Interlude
  1.
             E            F           F#            G
                                          2/4
  +H.      E E    +Q    E  E  +Q    E  E    +Q    E  E
|--------------||------------------------|-------------|
|--------------||------------------------|-------------|
|------------9-||-(9)\----10-(10)\----11-|-(11)\----12-|
|-(7)--------9-||-(9)\----10-(10)\----11-|-(11)\----12-|
|-(7)--------7-||-(7)\-----8--(8)\-----9-|--(9)\----10-|
|-(5)----------||------------------------|-------------|


                                                     2.
                                                      A         E
 4/4
   +W           E E E E E E E E   E E E E E E E E     H.      E E
|-------------|-----------------|------------------||--------------||
|-------------|-----------------|-----------------o||--------------||
|-(12)--------|---3-3---3-3-3-3-|-3----------------||-----------9--||
|-(12)--------|---3-3---3-3-3-3-|-3----------------||-7---------9--||
|-(10)--------|-------3---------|---------6-5-3---o||-7---------7--||
|-------------|-----------------|---0-3-5-------3--||-5------------||


 Interlude
         F           F#            G
                         2/4            4/4
  +Q   E  E  +Q    E  E    +Q    E   E    +W            +H      +E   E E E
|-----------------------|--------------|-------------|---------------------||
|-----------------------|--------------|-------------|---------------------||
|-(9)----10-(10)\----11-|-(11)\----/12-|-(12)--------|-(12)----(12)--------||
|-(9)----10-(10)\----11-|-(11)\----/12-|-(12)--------|-(12)----(12)--------||
|-(7)-----8--(8)\-----9-|--(9)\----/10-|-(10)--------|-(10)----(10)----5---||
|-----------------------|--------------|-------------|--------------/7---7-||


   Organ Solo
    N.C.
    Q  E E Q   Q    Q  Q  E  E E E   Q  E E Q   Q    Q  Q  E  E E E   3x
||----------------|----------------|---------------|------------------||
||o---------------|----------------|---------------|-----------------o||
||----------------|----------------|---------------|------------------||
||----------------|----------------|---------------|------------------||
||o-7--x-7-7\--x--|----x-------5---|-7--x-7-7\--x--|----x-------5----o||
||-------------x--|----x----/7---7-|------------x--|----x----/7---7---||


  Q  E E Q   Q    Q  Q  E  E E E   Q  E E Q  Q    Q  Q  E E Q
|---------------|----------------|--------------|--------------|
|---------------|----------------|--------------|--------------|
|---------------|----------------|--------------|--------------|
|---------------|----------------|--------------|--------------|
|-7--x-7-7\--x--|----x-------5---|-7--x-7-7--x--|----x---------|
|------------x--|----x----/7---7-|-----------x--|----x----0----|


  E    F          F#           G          G#
                                              2/4
  Q  E  E  +Q   E  E    +Q   E  E  +Q   E  E    +H
|--------------------|-----------------------|---------|
|--------------------|-----------------------|---------|
|-9----10-(10)----11-|-(11)----12-(12)----13-|-(13)----|
|-9----10-(10)----11-|-(11)----12-(12)----13-|-(13)----|
|-7-----8--(8)-----9-|--(9)----10-(10)----11-|-(11)----|
|--------------------|-----------------------|---------|


                     C
 4/4
   +W            +E   E  E  E  E  E  E  E    E E E E  E E E E
|-------------|---------------------------|--------------------||
|-------------|---------------------------|--------------------||
|-(13)--------|-(13)-12-12-12-12-12-12-12-|-12-------10-9-7----||
|-(13)--------|-(13)-10-10-10-10-10-10-10-|-10---7-9--------7--||
|-(11)--------|-(11)----------------------|----9---------------||
|-------------|---------------------------|--------------------||


 5th Verse
  B
  +E  E Q  Q  E E   +E  E +Q    Q  E E
|-----------------|--------------------|
|-----------------|--------------------|
|---------------7-|-(7)----------------|
|-(7)-9-------x---|-----9-(9)\-----x-7-|
|-----------------|--------------------|
|-----------------|--------------------|


  +E  E +Q    Q  E E   E E E E  E E E E
|--------------------|-------------------|
|--------------------|-------------------|
|--------------------|---------10-9-7----|
|-(7)----------------|-----7-9--------7--|
|-----9-(9)\-----x---|---9---------------|
|-----7-(7)\-----x---|-------------------|


                D       B         A       B
  +E  E Q  Q  E E   +E  E Q  Q  E E   +E  E Q  Q  E E   E E E E  E E E E
|-----------------|-----------------|-----------------|-------------------||
|-----------------|-----------------|-----------------|-------------------||
|---------------7-|-(7)-------------|-----------------|---------10-9-7----||
|-(7)-9-------x-7-|-(7)-9-------x-7-|-(7)-9-------x---|-----7-9--------7--||
|-------------x-5-|-(5)-9-------x-7-|-(7)-9-------x---|---9---------------||
|-------------x---|-----7-------x-5-|-(5)-7-------x---|-------------------||


 6th Verse
                  D       B           A
  +E  E Q   Q   E E   +E  E Q   Q   E E
|-------------------|-------------------|
|-------------------|-------------------|
|-----------------7-|-(7)---------------|
|-(7)-9---------x-7-|-(7)-9---------x-7-|
|---------------x-5-|-(5)-9---------x-7-|
|---------------x---|-----7---------x-5-|
|
| Gtr II
|  PM------------------------------------
|  E  E E E E E E E    E  E E E E E E E
|-------------------|-------------------|
|-------------------|-------------------|
|-------------------|-------------------|
|-------------------|-------------------|
|-------------------|-------------------|
|--7--7-7-7-7-7-7-7-|--7--7-7-7-7-7-7-7-|


      B
  +E  E S E.   E E E E   E E E E  E E E E
|----------------------|------------------|
|----------------------|------------------|
|----------------------|---------10-9-7---|
|-(7)-9----------------|-----7-9--------7-|
|-(7)-9-9s7----x-x-x-x-|-x-9--------------|
|-(5)-7-9s7----x-x-x-x-|-x----------------|
|
|---------------------------------------|
|  E  E E    E E E E E   E E E E  E E E E
|----------------------|------------------|
|----------------------|------------------|
|----------------------|------------------|
|----------------------|------------------|
|----------------------|------------------|
|--7--7-7----7-7-7-7-7-|-7-7-7-7--7-7-7-7-|


                  D       B           A
  +E  E Q   Q   E E   +E  E Q   Q   E E
|-------------------|-------------------|
|-------------------|-------------------|
|-----------------7-|-(7)---------------|
|-(7)-9---------x-7-|-(7)-9---------x-7-|
|---------------x-5-|-(5)-9---------x-7-|
|---------------x---|-----7---------x-5-|
|
|  PM------------------------------------
|  E  E E E E E E E    E  E E E E E E E
|-------------------|-------------------|
|-------------------|-------------------|
|-------------------|-------------------|
|-------------------|-------------------|
|-------------------|-------------------|
|--7--7-7-7-7-7-7-7-|--7--7-7-7-7-7-7-7-|


      B
  +E  E S E.   E E E E   E E E E E E E E
|----------------------|-----------------||
|----------------------|-----------------||
|----------------------|-----------------||
|-(7)-9----------------|---7---9-----7-9-||
|-(7)-9-9s7----x-x-x-x-|-x-7-x-9-x-9-7-9-||
|-(5)-7-9s7----x-x-x-x-|-x---x---x-9-----||
|
|--------------------------------------|
|  E  E E    E E E E E   E E E E E E E E
|----------------------|-----------------||
|----------------------|-----------------||
|----------------------|-----------------||
|----------------------|-----------------||
|----------------------|-----------------||
|--7--7-7----7-7-7-7-7-|-7-7-7-7-7-7-5-5-||


 Chorus
  D         A       B
  H..       E   +E  E +Q    E  E E E   H..       E   +Q    Q  E E E E
|-------------|----------------------|-------------|-------------------|
|-------------|----------------------|-------------|-------------------|
|-7-----------|----------------------|-7-----------|-------------------|
|-7---------7-|-(7)-9-(9)\-------7-9-|-----------9-|-(9)\---------7-9--|
|-5---------7-|-(7)-9-(9)\----/9-----|-----------9-|-(9)\-------9------|
|-----------5-|-(5)-7-(7)\-----------|-------------|-------------------|


            A       B
  H..       E   +E  E +Q    E E E E
|-------------|---------------------|
|-------------|---------------------|
|-7-----------|---------------------|
|-----------7-|-(7)-9-(9)\------7-9-|
|-----------7-|-(7)-9-(9)\----9-----|
|-----------5-|-(5)-7-(7)\----------|


  E   +E  E E   +E  E E E   E   +E  E E   +E  E E E
|-------------------------|--------------------------|
|-------------------------|--------------------------|
|-7b8-(7)---7b8-(7)---7---|-7b8-(7)---7b8-(7)---7----|
|---------9---------9---9-|---------9---------9---9--|
|-------------------------|--------------------------|
|-------------------------|--------------------------|


                                       Bridge
                                            B    G       B
  E E E E E E E E   E  E E E E E E E    E E Q  E E E E   E E E E E E E E
|-----------------|------------------||----------------|------------------|
|-----------------|------------------||----------------|------------------|
|-7-8-9-----------|------------------||----------------|------------------|
|-------7-8-9-----|------------------||-----9----5---5s|=9----------------|
|-------------5-6-|-7\---------------||-----9----5---5s|=9-x-x-x-x-x-x-x--|
|-----------------|----2---3---4---5-||-5s7-7----3---3s|=7-x-x-x-x-x-x-x--|


  A     E    A   B         A   B        A B               A
  Q  Q  Q  E E   H..       E   E E H    E E   +Q    E E E E E E
|--------------|-------------|--------------|--------------------|
|--------------|-------------|--------------|--------------------|
|-------9------|-------------|--------------|--------------------|
|-7-----9----7s|=9---------7s|=9---9----7s9-|-(9)\--------7---7--|
|-7-----7----7s|=9---------7s|=9---9----7s9-|-(9)\--x-x-x-7-x-7--|
|-5----------5s|=7---------5s|=7---7----5s7-|-(7)\--x-x-x-5-x-5--|


        E    A   B                     A B
  Q  Q  Q  E E   W          a E E H    E E   E E E E E E E E
|--------------|----------|----------------|-----------------|
|--------------|----------|----------------|-----------------|
|-------9------|----------|----------------|-----------------|
|-7-----9----7s|=9--------|-7s9---9----7-9-|-----------------|
|-7-----7----7s|=9--------|-7s9---9----7-9-|-x-x-x-x-x-x-x-x-|
|-5----------5s|=7--------|-5s7---7----5-7-|-x-x-x-x-x-x-x-x-|


  A     E    A   B           D     B        A B
  Q  Q  Q  E E   E E E E E E E E   E E H    E E   E E E E E E E E
|--------------|-----------------|--------------|------------------|
|--------------|-----------------|--------------|------------------|
|-------9------|-------------7-7-|--------------|------------------|
|-7-----9----7s|=9---9-x-x-x-7-7-|-9---9----7-9-|------------------|
|-7-----7----7s|=9---9-x-x-x-5-5-|-9---9----7-9-|-x-x-x-x-x-x-x-x--|
|-5----------5s|=7---7-x-x-x-----|-7---7----5-7-|-x-x-x-x-x-x-x-x--|


  A    G   E    D     B                   B    A B
  Q  E E a Q  E E   E E E E E E E E   E E H    E E   E E E E E E E E
|-----------------|-----------------|--------------|-----------------|
|-----------------|-----------------|--------------|-----------------|
|--------5s9----7-|-----------------|--------------|-----------------|
|-7----5-5s9----7-|---9-------------|-----9----7-9-|-----------------|
|-7----5-3s7----5-|---9-x-x-x-x-x-x-|-x---9----7-9-|-x-x-x-x-x-x-x-x-|
|-5----3----------|---7-x-x-x-x-x-x-|-x---7----5-7-|-x-x-x-x-x-x-x-x-|


  A     E    A   B      A
  Q  Q  Q  E E   Q  S S S S E S S Q
|--------------|---------------------|
|--------------|---------------------|
|-------9------|---------------------|
|-7-----9----7s|=9--9---7-----7---7--|
|-7-----7----7s|=9--9---7-----7---7--|
|-5----------5s|=7--7---5-----5---5--|


  B            A B       A   B   A   B   A   B
  E E Q  +E  E E E   S S S S S S S S S S S S E E
|------------------|-------------------------------|
|------------------|-------------------------------|
|------------------|-------------------------------|
|-9---9--(9)---7-9-|-9---7---9---7---9---7---9-----|
|-9---9--(9)-x-7-9-|-9---7---9---7---9---7---9-----|
|-7---7--(7)-x-5-7-|-7---5---7---5---7---5---7-----|


                               Outro
  A     E    A   B         F#          G        G#         A        A#
  Q  Q  Q  E E   Q  H    E E    +Q   E E +Q   E E   +Q   E E +Q   E E
|--------------|-------------||-------------------|--------------------|
|--------------|-------------||-------------------|--------------------|
|-------9------|-------------||-------------------|--------------------|
|-7-----9----7s|=9--9------4-||-(4)----5-(5)----6-|-(6)----7-(7)----8--|
|-7-----7----7s|=9--9------4-||-(4)----5-(5)----6-|-(6)----7-(7)----8--|
|-5----------5s|=7--7----0-2-||-(2)----3-(3)----4-|-(4)----5-(5)----6--|


         B
 2/4        4/4
  +Q   E E   +W           +W           +W           +W           +W
|----------|------------|------------|------------|------------|--------*|
|----------|------------|------------|------------|------------|--------*|
|----------|------------|------------|------------|------------|--------*|
|-(8)----9-|-(9)--------|-(9)--------|-(9)--------|-(9)--------|-(9)----*|
|-(8)----9-|-(9)--------|-(9)--------|-(9)--------|-(9)--------|-(9)----*|
|-(6)----7-|-(7)--------|-(7)--------|-(7)--------|-(7)--------|-(7)----*|


Duration Legend
---------------
W - whole; H - half; Q - quarter; E - 8th; S - 16th; T - 32nd; X - 64th; a - acciaccatura
+ - note tied to previous; . - note dotted; .. - note double dotted
Uncapitalized letters represent notes that are staccato (1/2 duration)
Irregular groupings are notated above the duration line
Duration letters will always appear directly above the note/fret number it represents the
duration for.  Duration letters with no fret number below them represent rests.  Multi-
bar rests are notated in the form Wxn, where n is the number of bars to rest for.  Low
melody durations appear below the staff

Tablature Legend
----------------
 h   - hammer-on
 p   - pull-off
 b   - bend
 pb  - pre-bend
 r   - bend release (if no number after the r, then release immediately)
 /\  - slide into or out of (from/to "nowhere")
 s   - legato slide
 S   - shift slide
  - natural harmonic
[n]  - artificial harmonic
n(n) - tapped harmonic
 ~   - vibrato
 tr  - trill
 T   - tap
 TP  - trem. picking
 PM  - palm muting
\n/  - tremolo bar dip; n = amount to dip
 \n  - tremolo bar down
 n/  - tremolo bar up
/n\  - tremolo bar inverted dip
 =   - hold bend; also acts as connecting device for hammers/pulls
 <>  - volume swell (louder/softer)
 x   - on rhythm slash represents muted slash
 o   - on rhythm slash represents single note slash

Misc Legend
-----------
 |  - bar
||  - double bar
||o - repeat start
o|| - repeat end
*|  - double bar (ending)
 :  - bar (freetime)
 $  - Segno
 &  - Coda
Tempo markers -  = BPM(8/16=s8/s16), where s8 = swing 8ths, s16 = swing 16ths
Добавлено: 31.03.2015
Другие материалы по этой песне:

Страница создана 26.03.2012
http://primanota.ru/deep-purple/smooth-dancer-chords.htm
Привет, Гость.
Предлагаем пройти революционный курс по гитаре.
Подарок от PrimaNota.Ru, забирай!