PrimaNota.ru - самый крупный в мире бесплатный архив песенных текстов, аккордов, табулатур и нот


Deep Purple - Never Before - текст песни, таба, бас-таба, видео

Регистрация Запомнить меня
Войти через:  Facebook Google Twitter Vk Yandex Mail.ru

Deep Purple - Never Before - текст песни, таба, бас-таба, видео

Печатать
Просмотров: 683
Уроки эстрадного вокала в Санкт-Петербурге
-------------------------------------------------------------------------------
Deep Purple-Never Before (solo)
(Blackmore/Gillan/Glover/Lord/Paice)
Album: Machine Head (1972)
-------------------------------------------------------------------------------

e|----------------------------------------------------------|
B|--10b12-10b12-9-------------------------------------------|
G|----------------11------9---------------11p9--------------|
D|-------------------12-9---12~-9--9-12-9------12-9-12------|
A|----------------------------------------------------------|
E|----------------------------------------------------------|

hold bend------------|

e|------------------------------------------------12--------|
B|--13b15-15-15-15-15r13-10----10----10------12------15-12--|
G|--------------------------11----11----9-11----11----------|
D|----------------------------------------------------------|
A|----------------------------------------------------------|
E|----------------------------------------------------------|

e|----------------------------------------------------------|
B|----------------------------------------------------------|
G|--9------9--------------------------11--------------------|
D|----12-9---12p11-9-12p11-9-12-9-/12----12-11-9----9-------|
A|-----------------------------------------------11---11----|
E|----------------------------------------------------------|

e|-----------------------------------------------------7----|
B|---------------------------------------------------7-7----|
G|-----------------------11----11----9----11---11-11--------|
D|--9----9----11----9-11----11----11---11----11-------------|
A|----11---11----11-----------------------------------------|
E|----------------------------------------------------------|

e|--7---------------|
B|--7---------------|
G|-----9-7---7------| 2x
D|---------9---9----|
A|------------------|
E|------------------|

e|--7------------------------------------------------||
B|--7------------------------------------------------||
G|-----9-7---7-9-7---7-10b11r10b11r10b11r10b11r10b11-||
D|---------9-------9---------------------------------||
A|---------------------------------------------------||
E|---------------------------------------------------||
Добавлено: 08.06.2012
Другие материалы по этой песне:

Страница создана 20.04.2012
http://primanota.ru/deep-purple/never-before-chords.htm
Привет, Гость.
Предлагаем пройти революционный курс по гитаре.
Подарок от PrimaNota.Ru, забирай!