PrimaNota.ru - самый крупный в мире бесплатный архив песенных текстов, аккордов, табулатур и нот


Deep Purple - Kentucky Woman - текст песни, таба, бас-таба, видео

Регистрация Запомнить меня
Войти через:  Facebook Google Twitter Vk Yandex Mail.ru

Deep Purple - Kentucky Woman - текст песни, таба, бас-таба, видео

Печатать
Просмотров: 228
Авторы музыки: Neil Diamond

As recorded by Deep Purple
                   (From the 1968 Album THE BOOK OF TALIESYN)

Words and Music by Neil Diamond
Arranged by Deep Purple    (Tone Jones)

Gtr I (E A D G B E) - 'Overdriven Guitar'
Gtr II (E A D G B E) - 'Vocal'
Gtr III (E A D G B E) - 'Organ'
Gtr IV (E A D G B E) - 'Chorus'

 Intro
  Q=167
 4/4
  Gtr I
  W          Q  E E E E +Q     Q  E E E E Q    Q  Q  Q  Q
|----------|-----------------|---------------|----------5---|
|----------|-----------------|---------------|----------6---|
|----------|----0------------|----3----------|----------5---|
|----------|--------3-1-(1)--|-4----4-3-1-3--|--------------|
|----------|-----------------|---------------|-3------------|
|----------|-----------------|---------------|--------------|


  Q  Q  Q  Q    Q  Q  Q  Q    Q  Q  Q  Q    Q  Q  Q  Q
|----6--5-----|-3--------5--|----6--5-----|-3--------5--|
|----8--6-----|-5--------6--|----8--6-----|-5--------6--|
|----5--------|-5--------5--|----5--------|-5--------5--|
|-------------|-------------|-------------|-------------|
|-------------|-------------|-------------|-------------|
|-------------|-------------|-------------|-------------|


  Q  Q  Q  Q    Q  Q  Q  Q    Q  Q  Q  Q    Q  Q  H
|----6--5-----|-3--------5--|----6--5-----|-3----------|
|----8--6-----|-5--------6--|----8--6-----|-5----------|
|----5--5-----|-5--------5--|----5--5-----|-5----------|
|-------------|-------------|-------------|------------|
|-------------|-------------|-------------|------------|
|-------------|-------------|-------------|------------|


  Gtr III                                                      Gtr I
   S  S  S  S S S S S S S S S S S   E S S E S S S S S S S E.   Q  Q  E E +Q
|---------------------------------|---------------------0-0--|-----------------|
|---------------------------------|--------------------------|-----------------|
|-13-12-11-10-9-9-7-7-5-4-3-1-0---|--------------------------|-----------------|
|-------------------------------4-|-3-2-0--------------------|----5--3-1-(1)---|
|---------------------------------|-------4-2-1-0------------|-----------------|
|---------------------------------|---------------4-2-1------|-----------------|


 Verse
  H      +Q.           E    H            +Q.         E
|------------------------|-----------------------------|
|------------------------|-----------------------------|
|------------------------|--2------------(2)-----------|
|------------------------|--3------------(3)-----------|
|-3------(3)-------------|--3------------(3)-----------|
|------------------------|-----------------------------|
|
| Gtr II
| H       S  S S S S S E   +S  S E S S E +E  E +E    E
|------------------------|-----------------------------|
|---------1----1---1---3-|-(3)---3-3---3-(3)-----------|
|------------------------|-------------------2-(2)-----|
|------------------------|-----------------------------|
|------------------------|-----------------------------|
|------------------------|-----------------------------|
|
| Gtr III
| Q  E E  E    E   Q        Q      E   E  E  E +S  S E
|----0-------------------|-----------------------------|
|----1----3----5---------|---------6---------6-(6)-----|
|----0----3----5---------|---------5---------5-(5)-----|
|---------3----5---------|---------7---------7-(7)-----|
|------------------------|-----------------------------|
|------------------------|-----------------------------|


  Q   E E E E Q    Q  E E E E Q
|----------------|---------------|
|-----1----------|---------------|
|-----0---3-5----|----5---3-5----|
|---------3-5----|----5---3-5----|
|----------------|---------------|
|----------------|---------------|
|
| E E Q   H        W
|----------------|---------------|
|----------------|---------------|
|-0-0------------|---------------|
|-----2----------|---------------|
|----------------|---------------|
|----------------|---------------|
|
| Q   E E E E Q    Q  E E E E Q
|----------------|---------------|
|-----5---3-5----|----5---3-5----|
|-----5---3-5----|----5---3-5----|
|-----5---3-5----|----5---3-5----|
|----------------|---------------|
|----------------|---------------|


  E E  E E   E   E Q      H             E  E    Q
|----------------------|-----------------------------|
|----------------------|-----------------------------|
|----------------------|-----------------------------|
|----------------5-----|--7-------------5--7---------|
|-----10-----8---------|--8-------------6--8---------|
|-6-7--8-----6---8-----|--8-------------6--8---------|
|
| Q    E S S S S E E E   +E  E +E  S S +E.   S +Q
|----------------------|-----------------------------|
|--------1---1---1-1-3-|-(3)-3-(3)---3-(3)-----------|
|----------------------|---------------------2-(2)---|
|----------------------|-----------------------------|
|----------------------|-----------------------------|
|----------------------|-----------------------------|
|
| Q    E E   E   E Q      H            +Q.         E
|----------------------|-----------------------------|
|------5-----3---5-----|-----------------------------|
|------5-----3---5-----|--5------------(5)-----------|
|------5-----3---5-----|--7------------(7)-----------|
|----------------------|--8------------(8)-----------|
|----------------------|-----------------------------|


  Q   E E E E Q    Q  E E E E Q
|----------------|----------------|
|----------------|----------------|
|----------------|----------------|
|-----------5----|----5-----5-----|
|----10---8------|--------8-------|
|-----8---6-8----|----8---6-8-----|
|
| Q   E E Q   Q    H      E E E E
|----------------|----------------|
|----------------|----------------|
|-0---0----------|----------------|
|---------2------|----------3-2---|
|----------------|----------------|
|----------------|----------------|
|
| Q   E E E E Q    Q  E E E E Q
|----------------|----------------|
|-----5---3-5----|----5---3-5-----|
|-----5---3-5----|----5---3-5-----|
|-----5---3-5----|----5---3-5-----|
|----------------|----------------|
|----------------|----------------|


 Pre-Chorus
  W              E E  E    E   +Q.         E
|--------------|-----------------------------|
|--------------|-----------------------------|
|--------------|-2-0-------------------------|
|-3------------|-3-2-------3---(3)-----------|
|-3------------|-----------3---(3)-----------|
|-5------------|-----------5---(5)-----------|
|
| Q  Q  +H       Q    E    S S  E  S S  E  E
|--------------|-----------------------------|
|--------------|-----------------------------|
|----2--(2)----|-----------2-------0---------|
|-0------------|---------------------------3-|
|--------------|-----------------------------|
|--------------|-----------------------------|
|
| W              E E +S  S E   +E  E   +Q
|-5------------|-7-5-(5)---3---(3)-5---(5)---|
|-6------------|-----------------------------|
|-5------------|-----------------------------|
|--------------|-----------------------------|
|--------------|-----------------------------|
|--------------|-----------------------------|


  W               E E E E +Q.         E
|---------------|-----------------------|
|---------------|-0---------------------|
|-0-------------|-0-2---0-(0)-----------|
|-0-------------|---4---0-(0)-----------|
|-2-------------|-------2-(2)-----------|
|---------------|-----------------------|
|
| E E Q  +H       Q   E E  S  S E +Q
|---------------|-----------------------|
|---------------|-----------------------|
|-----4--(4)----|----------5----5-(5)---|
|-5-------------|-------5---------------|
|---------------|-----------------------|
|---------------|-----------------------|
|
| W               E E E E +E    E +Q
|-7-------------|-8-7---5-(5)---7-(7)---|
|-8-------------|-----------------------|
|-7-------------|-----------------------|
|---------------|-----------------------|
|---------------|-----------------------|
|---------------|-----------------------|


 Chorus
   Q   Q   Q   Q     Q  Q  H              Q   Q   Q  Q    Q  Q  H
|-----------------|--------------------|----------------|-----------------|
|--------------6--|--5-----------------|-------------6--|-5---------------|
|--3---5-------5--|--5-----------------|--3---5------5--|-5---------------|
|--3---5-------7--|--5-----------------|--3---5------7--|-5---------------|
|-----------------|--------------------|----------------|-----------------|
|-----------------|--------------------|----------------|-----------------|
|
|  Q   Q   H         H     E E +S  S E    Q   Q   H       H     S S E E E
|-----------------|--------------------|----------------|-----------------|
|------1----------|--------1-1-(1)---1-|--3---1---------|-------1---1---1-|
|--3--------------|--------------------|----------------|-----------------|
|-----------------|--------------------|----------------|-----------------|
|-----------------|--------------------|----------------|-----------------|
|-----------------|--------------------|----------------|-----------------|
|
|  Q   E E Q   Q     Q  Q  H              Q   E E Q  Q    Q  Q  H
|-10--12----------|--------------------|----------------|-----------------|
|-11--13----------|--------------------|----------------|-5---------------|
|-10--12------10--|--9-----------------|-10---9------7--|-5---------------|
|-------------10--|-10-----------------|-10--10------8--|-5---------------|
|-------------12--|-10-----------------|-12--10------8--|-----------------|
|-----------------|--------------------|----------------|-----------------|


  Q  Q  Q  Q    Q  Q     H            Q  Q  Q  Q    Q  Q  H
|-------------|---------------------|-------------|------------|
|----------6--|-5-------------------|----------6--|-5----------|
|-3--5-----5--|-5-------------------|-3--5-----5--|-5----------|
|-3--5-----7--|-5-------------------|-3--5-----7--|-5----------|
|-------------|---------------------|-------------|------------|
|-------------|---------------------|-------------|------------|
|
| Q  Q  H       Q  E S S S S E +Q     Q  Q  H       W
|-------------|---------------------|-------------|------------|
|----1--------|----------1----------|-3--1--------|------------|
|-3-----------|------3-------3-(3)--|-------------|------------|
|-------------|---------------------|-------------|------------|
|-------------|---------------------|-------------|------------|
|-------------|---------------------|-------------|------------|
|
| Q  Q  Q  Q    Q  Q     H            Q  Q  Q  Q    Q  Q  H
|-------------|---------------------|-------------|------------|
|-3--5-----6--|-5-------------------|-6--5-----3--|-5----------|
|-3--5-----5--|-5-------------------|-5--5-----3--|-5----------|
|-3--5-----7--|-5-------------------|-7--5-----3--|-5----------|
|-------------|---------------------|-------------|------------|
|-------------|---------------------|-------------|------------|


 Verse 2
  Q.      E E   E   Q      Q      E   E  E  E  Q
|-----------------------|--------------------------|
|-----------------------|--------------------------|
|-----------------------|--------------------------|
|-5-------------5-------|--7------7------5--7------|
|-----------8-----------|--8------8------6--8------|
|-8---------6---8-------|--------------------------|
|
| H         S S S S E E   +S  S E S S E +E  E +Q
|-----------------------|--------------------------|
|-----------1---1---1-3-|-(3)---3-3---3-(3)--------|
|-----------------------|-------------------2-(2)--|
|-----------------------|--------------------------|
|-----------------------|--------------------------|
|-----------------------|--------------------------|
|
| Q   S S E E   E   Q      H             E  E  Q
|-----------------------|--------------------------|
|-----5-----3---5-------|--------------------------|
|-----5-----3---5-------|--5----------------5------|
|-----5-----3---5-------|--7----------------7------|
|-----------------------|--8----------------8------|
|-----------------------|--------------------------|


  Q  E E E E  Q        Q  E E E E Q
|--------------------|---------------|
|--------------------|---------------|
|----5---3-5---------|----5---3-5----|
|----5---3-5---------|----5---3-5----|
|--------------------|---------------|
|--------------------|---------------|
|
| Q  Q   Q   +S  S E   W
|--------------------|---------------|
|--------------------|---------------|
|-0--0---------------|---------------|
|--------2---(2)-----|---------------|
|--------------------|---------------|
|--------------------|---------------|
|
| Q  E E E E  Q        Q  E E E E Q
|--------------------|---------------|
|----5---3-5---------|----5---3-5----|
|----5---3-5---------|----5---3-5----|
|----5---3-5---------|----5---3-5----|
|--------------------|---------------|
|--------------------|---------------|


  Q  E E  E    E  Q      Q      E    E  E    E  Q
|----------------------|-------------------------------|
|----------------------|-------------------------------|
|----------------------|-------------------------------|
|----5---------5-------|--------7-------5----7---------|
|---------8------------|--------8-------6----8---------|
|----8----6----8-------|-------------------------------|
|
| Q  Q   +S  S E +E  E   S S E +S  S E +S  S E  E    E
|----------------------|-------------------------------|
|----5---(5)---5-(5)---|-5---6-(6)---6-(6)---6-------6-|
|----------------------|-------------------------------|
|----------------------|-------------------------------|
|----------------------|-------------------------------|
|----------------------|-------------------------------|
|
| Q  E E  E    E  Q      Q      E    E  E    E +S  S E
|----------------------|-------------------------------|
|----5----3----5-------|-------------------------------|
|----5----3----5-------|--------5------------5-(5)-----|
|----5----3----5-------|--------7------------7-(7)-----|
|----------------------|--------8------------8-(8)-----|
|----------------------|-------------------------------|


  Q    E  E  E  E Q     Q   E E E E Q
|--------------------|------------------|
|--------------------|------------------|
|------5-----3--5----|------5---3-5-----|
|------5-----3--5----|------5---3-5-----|
|--------------------|------------------|
|--------------------|------------------|
|
| E E +Q    +H         +Q   Q   E E Q
|--------------------|------------------|
|-6-8-(8)---(8)------|-(8)--------------|
|--------------------|------------------|
|--------------------|------------------|
|--------------------|------------8-7---|
|--------------------|------------------|
|
| Q    E  E  E  E Q     Q   E E E E Q
|--------------------|------------------|
|------5-----3--5----|------5---3-5-----|
|------5-----3--5----|------5---3-5-----|
|------5-----3--5----|------5---3-5-----|
|--------------------|------------------|
|--------------------|------------------|


 Pre-Chorus
   H      +H         E  E E E   +Q.        E
|----------------|---------------------------|
|----------------|---------------------------|
|----------------|---2--0--------------------|
|--3------(3)----|---3--2---3---(3)----------|
|--3------(3)----|----------3---(3)----------|
|--5------(5)----|----------5---(5)----------|
|
|  E E Q  +H        +Q    E S S  E  S S  E E
|----------------|---------------------------|
|----------------|---------------------------|
|----------------|---------------------------|
|------7--(7)----|--(7)-------7-----5------3-|
|--5-------------|---------------------------|
|----------------|---------------------------|
|
|  W                +H           Q       Q
|----------------|---------------------------|
|-22-------------|-(22)---------20------22---|
|-22-------------|-(22)----------------------|
|----------------|---------------------------|
|----------------|---------------------------|
|----------------|---------------------------|


   W                E   E E  E  +Q.           E
|----------------|-------------------------------|
|----------------|-------------------------------|
|--0-------------|--4---2----0--(0)--------------|
|--0-------------|--3---2----0--(0)--------------|
|--2-------------|-----------2--(2)--------------|
|----------------|-------------------------------|
|
|  E E Q  +H       +Q     E  E   S  S  E  +Q
|----------------|-------------------------------|
|----------------|-------------------------------|
|------4--(4)----|-(4)-----------5-----5--(5)----|
|--5-------------|-----------5-------------------|
|----------------|-------------------------------|
|----------------|-------------------------------|
|
|  W                E   E E  E  +E     E  +Q
|----------------|-20--19---17-(17)---19-(19)----|
|-24-------------|-------------------------------|
|-24-------------|-------------------------------|
|-24-------------|-------------------------------|
|----------------|-------------------------------|
|----------------|-------------------------------|


 Chorus
   Q   Q   Q   Q     Q  Q  H              Q   Q  Q   Q     Q  Q  H
|-----------------|--------------------|----------------|------------------|
|--------------6--|--5-----------------|-------------6--|--5---------------|
|--3---5-------5--|--5-----------------|--3---5------5--|--5---------------|
|--3---5-------7--|--5-----------------|--3---5------7--|--5---------------|
|-----------------|--------------------|----------------|------------------|
|-----------------|--------------------|----------------|------------------|
|
|  Q   Q   H         H     E E +S  S E    Q   Q  H         H     S S E E E
|-----------------|--------------------|----------------|------------------|
|------1----------|--------1-1-(1)---1-|--3---1---------|--------1---1---1-|
|--3--------------|--------------------|----------------|------------------|
|-----------------|--------------------|----------------|------------------|
|-----------------|--------------------|----------------|------------------|
|-----------------|--------------------|----------------|------------------|
|
|  Q   E E Q   Q     Q  Q  H              Q   Q  Q   Q     Q  Q  H
|-----------------|--------------------|----------------|------------------|
|-----17------18--|-17-----------------|-15--17-----15--|-17---------------|
|-19--17------17--|-17-----------------|-15--17-----15--|-17---------------|
|-20--17------19--|-17-----------------|-15--17-----15--|-17---------------|
|-20--------------|--------------------|----------------|------------------|
|-----------------|--------------------|----------------|------------------|


   Q   Q  Q   Q     Q  Q     H             Q   Q   Q   Q     Q  Q  H
|----------------|----------------------|-----------------|-------------|
|-------------6--|--5-------------------|--------------6--|--5----------|
|--3---5------5--|--5-------------------|--3---5-------5--|--5----------|
|--3---5------7--|--5-------------------|--3---5-------7--|--5----------|
|----------------|----------------------|-----------------|-------------|
|----------------|----------------------|-----------------|-------------|
|
|  Q   Q  H         Q  E S S S S E +Q      Q   E E H         W
|----------------|----------------------|-----------------|-------------|
|------1---------|-----------1----------|--3---1----------|-------------|
|--3-------------|-------3-------3-(3)--|-----------------|-------------|
|----------------|----------------------|-----------------|-------------|
|----------------|----------------------|-----------------|-------------|
|----------------|----------------------|-----------------|-------------|
|
|  Q   Q  Q   Q     Q  Q     H             Q   E E Q   Q     Q  Q  H
|----------------|----------------------|-----------------|-------------|
|-15--17-----18--|-17-------------------|-15--17------18--|-17----------|
|-15--17-----17--|-17-------------------|-15--17------17--|-17----------|
|-15--17-----19--|-17-------------------|-15--17------19--|-17----------|
|----------------|----------------------|-----------------|-------------|
|----------------|----------------------|-----------------|-------------|


 Bridge
  S S E +Q     +H            +H         +Q   +S  S S S
|--------------------------|---------------------------|
|-----6-(6)----(6)---------|-(6)--------(6)--(6)-------|
|---7----------------------|-------------------------7-|
|-7------------------------|-----------------------7---|
|--------------------------|---------------------------|
|--------------------------|---------------------------|
|
| Q      S  E.  S  S E E E   +S  S E Q   H
|--------------------------|---------------------------|
|--------------------------|---------------------------|
|--------------------------|---------------------------|
|-----------0---3----5---7-|-(7)-----------------------|
|--------------------------|---------------------------|
|--------------------------|---------------------------|
|
| W                          +W
|-1------------------------|-(1)-----------------------|
|-3------------------------|-(3)-----------------------|
|-2------------------------|-(2)-----------------------|
|-0------------------------|-(0)-----------------------|
|--------------------------|---------------------------|
|--------------------------|---------------------------|


   W                 +H        +Q.         E
|------------------|-----------------------------|
|--6---------------|-(6)-------(6)---------------|
|------------------|-----------------------------|
|------------------|-----------------------------|
|------------------|-----------------------------|
|------------------|-----------------------------|
|
|  Q   E E E E E E    E  E E E +E  E  Q
|------------------|-----------------------------|
|------------------|-----------------------------|
|----------7-5-----|-----------------------------|
|--------7-------7-|-----5---3-(3)---------------|
|------------------|-----------------------------|
|------------------|-----------------------------|
|
| +W                 +H        +Q    +S  S S S
|-(1)--------------|-(1)-------(1)---(1)---------|
|-(3)--------------|-(3)-------(3)---(3)---3-6---|
|-(2)--------------|-(2)-------(2)---(2)-----2---|
|-(0)--------------|-(0)-------(0)---(0)---0-----|
|------------------|-----------------------------|
|------------------|-----------------------------|


   S  E.   +Q      +H          +H.              E    E
|----------------------------|-------------------------|
|-----6----(6)-----(6)-------|-(6)-------------------6-|
|-----7----(7)-----(7)-------|-(7)-------------------7-|
|--7-------------------------|-----------------------7-|
|----------------------------|-------------------------|
|----------------------------|-------------------------|
|
|  Q        E  S S  E  E E E   +S  S E Q   H
|----------------------------|-------------------------|
|----------------------------|-------------------------|
|----------------------------|-------------------------|
|--------------3----3--5---7-|-(7)---------------------|
|----------------------------|-------------------------|
|----------------------------|-------------------------|
|
| +S  S  E  Q      +H          +H         +Q   +S  S E
|-----------1------(1)-------|-(1)--------(1)--(1)---1-|
|-(6)-------3------(3)-------|-(3)--------(3)--(3)---3-|
|-(2)-------2------(2)-------|-(2)--------(2)--(2)---2-|
|-----------0------(0)-------|-(0)--------(0)--(0)---0-|
|----------------------------|-------------------------|
|----------------------------|-------------------------|


  E S S  Q        +H           +H        +H
|----------------------------|---------------------|
|--------6--------(6)--------|-(6)-------(6)-------|
|-----7----------------------|---------------------|
|---7------------------------|---------------------|
|----------------------------|---------------------|
|----------------------------|---------------------|
|
| Q      E    S S  E  E +Q      E  E E E +Q   Q
|----------------------------|---------------------|
|----------------------------|---------------------|
|------------------7--5-(5)--|---------------------|
|-------------7--------------|--7--5---3-(3)-------|
|----------------------------|---------------------|
|----------------------------|---------------------|
|
| E E   +S  S E   +H           +W
|---1---(1)---1---(1)--------|-(1)-----------------|
|---3---(3)---3---(3)--------|-(3)-----------------|
|---2---(2)---2---(2)--------|-(2)-----------------|
|---0---(0)---0---(0)--------|-(0)-----------------|
|----------------------------|---------------------|
|----------------------------|---------------------|


  S E. +Q   +H          +H     +Q   +S  S E
|---------------------|---------------------|
|---5--(5)--(5)-------|-(5)----(5)--(5)-----|
|-5-------------------|---------------------|
|-5-------------------|---------------------|
|---------------------|---------------------|
|---------------------|---------------------|
|
| H          E  E E E   +H.          Q
|---------------------|---------------------|
|---------------------|---------------------|
|---------------------|---------------------|
|------------2--2-3-5-|-(5)-----------------|
|---------------------|---------------------|
|---------------------|---------------------|
|
| W                     +W
|-3-------------------|-(3)-----------------|
|-5-------------------|-(5)-----------------|
|-5-------------------|-(5)-----------------|
|---------------------|---------------------|
|-3-------------------|-(3)-----------------|
|---------------------|---------------------|


  W              +H     +Q   +S  S E
|--------------|---------------------|
|-6------------|-(6)----(6)--(6)-----|
|-5------------|-(5)----(5)--(5)-----|
|-7------------|-(7)----(7)--(7)-----|
|--------------|---------------------|
|--------------|---------------------|
|
| H    E E E E   +H.          Q
|--------------|---------------------|
|--------------|---------------------|
|--------------|---------------------|
|------3-5---7-|-(7)-----------------|
|--------------|---------------------|
|--------------|---------------------|
|
| W              +H      Q    Q
|-5------------|-(5)-----3----5------|
|-6------------|-(6)-----------------|
|-5------------|-(5)-----------------|
|-3------------|-(3)-----------------|
|--------------|---------------------|
|--------------|---------------------|


  W                  +H      +H
|-3----------------|-(3)-----(3)------------||
|-3----------------|-(3)-----(3)------------||
|-4----------------|-(4)-----(4)------------||
|------------------|------------------------||
|------------------|------------------------||
|------------------|------------------------||
|
| H    E S S S S E   +Q.   E  S  S  E  +Q
|------------------|------------------------||
|------8-8---8---8-|-(8)--------------------||
|------------------|------------------------||
|------------------|---------10----10-(10)--||
|------------------|------------------------||
|------------------|------------------------||
|
| W                  +W
|-7----------------|-(7)--------------------||
|-8----------------|-(8)--------------------||
|-7----------------|-(7)--------------------||
|-5----------------|-(5)--------------------||
|------------------|------------------------||
|------------------|------------------------||


 Chorus
   Q   Q  Q   Q     Q  Q   H
|----------------|------------------------|
|-------------6--|--5---------------------|
|--3---5------5--|--5---------------------|
|--3---5------7--|--5---------------------|
|----------------|------------------------|
|----------------|------------------------|
|
|  Q   Q  H         H      E  E  +S  S  E
|----------------|------------------------|
|----------------|------------------------|
|----------------|------------------------|
|--8--10---------|--------10-10-(10)---10-|
|----------------|------------------------|
|----------------|------------------------|
|
|  Q   Q  Q   Q     Q  Q   H
|-13--12-----10--|-12---------------------|
|-13--13-----11--|-13---------------------|
|-14--12-----10--|-12---------------------|
|----------------|------------------------|
|----------------|------------------------|
|----------------|------------------------|


   Q   Q  Q   Q     Q  Q   H
|----------------|---------------------|
|-------------6--|--5------------------|
|--3---5------5--|--5------------------|
|--3---5------7--|--5------------------|
|----------------|---------------------|
|----------------|---------------------|
|
|  Q   Q  H         H      S S  E E  E
|----------------|---------------------|
|----------------|---------------------|
|----------------|---------------------|
|-12--10---------|--------10---10---10-|
|----------------|---------------------|
|----------------|---------------------|
|
|  Q   Q  Q   Q     Q  Q   H
|-10--12-----10--|-12------------------|
|-11--13-----11--|-13------------------|
|-10--12-----10--|-12------------------|
|----------------|---------------------|
|----------------|---------------------|
|----------------|---------------------|


   Q   Q  Q   Q     Q  Q      H
|----------------|------------------------|
|-------------6--|--5---------------------|
|--3---5------5--|--5---------------------|
|--3---5------7--|--5---------------------|
|----------------|------------------------|
|----------------|------------------------|
|
|  Q   Q  H         Q  E S S  S S E +Q
|----------------|------------------------|
|----------------|------------------------|
|----------------|------------------------|
|--8--10---------|-------8---10---8-(8)---|
|----------------|------------------------|
|----------------|------------------------|
|
|  Q   Q  Q   Q     Q  Q      H
|-13--12-----10--|-12---------------------|
|-13--13-----11--|-13---------------------|
|-14--12-----10--|-12---------------------|
|----------------|------------------------|
|----------------|------------------------|
|----------------|------------------------|


   Q   Q   Q   Q     Q  Q  H
|-----------------|-------------||
|--------------6--|--5----------||
|--3---5-------5--|--5----------||
|--3---5-------7--|--5----------||
|-----------------|-------------||
|-----------------|-------------||
|
|  Q   E E H         W
|-----------------|-------------||
|-----------------|-------------||
|--7---5----------|-------------||
|-----------------|-------------||
|-----------------|-------------||
|-----------------|-------------||
|
|  Q   Q   Q   Q     Q  Q  H
|-10--12------10--|-12----------||
|-11--13------11--|-13----------||
|-10--12------10--|-12----------||
|-----------------|-------------||
|-----------------|-------------||
|-----------------|-------------||


 Guitar Solo
  Q   E E +H          +S  S E  E S S  E  S S E E
|-----5-3-(3)-------|-(3)---3---------------------|
|-4-----------------|------------5----3--1---3-1--|
|-------------------|----------------------2------|
|-------------------|-----------------------------|
|-------------------|-----------------------------|
|-------------------|-----------------------------|
|
| W                    W
|-------------------|-----------------------------|
|-------------------|-----------------------------|
|-------------------|-----------------------------|
|-------------------|-----------------------------|
|-------------------|-----------------------------|
|-------------------|-----------------------------|
|
| Q   E E  E   E Q     Q       E E    E  E   Q
|-------------------|-----------------------------|
|-------------------|-----------------------------|
|-------------------|-----------------------------|
|----14---12--14----|---------14-----12-14--------|
|----15---13--15----|---------15-----13-15--------|
|----15---13--15----|---------15-----13-15--------|


  Gtr III
   Q    E E  E     E Q     Q   E E  E     E Q
|------------------------|----------------------|
|------------------------|----------------------|
|------------------------|----------------------|
|------14---12----14-----|----14---12----14-----|
|------15---13----15-----|----15---13----15-----|
|------15---13----15-----|----15---13----15-----|
|
| +H        +S  S  E E E   H       +S  S  E E E
|------------------------|----------------------|
|-(1)-------(1)----4-5-4-|-5-------(5)----4-5-4-|
|------------------------|----------------------|
|------------------------|----------------------|
|------------------------|----------------------|
|------------------------|----------------------|


  Q    E E  E  E Q     Q    E E  E  E Q
|--------------------|--------------------|
|--------------------|--------------------|
|--------------------|--------------------|
|-----14---12-14-----|-----14---12-14-----|
|-----15---13-15-----|-----15---13-15-----|
|-----15---13-15-----|-----15---13-15-----|
|
| E E  E E  E  E E E   E E  E E  E  E E E
|---5--4-------4-5---|-4-5--7----5--7-8-7-|
|-5------4--5------5-|--------5-----------|
|--------------------|--------------------|
|--------------------|--------------------|
|--------------------|--------------------|
|--------------------|--------------------|


  Q     E E   E   E   Q         Q       E    E  E  E  Q      Q  E E E E   Q
|----------------------------|-----------------------------|------------------|
|----------------------------|-----------------------------|------------------|
|----------------------------|-----------------------------|----2---0-2-------|
|------14----12--14----------|---------14------12-14-------|----3---1-3-------|
|------15----13--15----------|---------15------13-15-------|----3---1-3-------|
|------15----13--15----------|---------15------13-15-------|------------------|
|
| E  E  Q    +E   E  +S  S E   +S  S E +S  S E  E  E +E  E   Q  E E E S S E E
|-8-10-10---(10)-10-(10)---8-|-(8)---7-(7)---5-----7-(7)-5-|----5-3---------5-|
|----------------------------|-----------------------------|-5------4-4-3-5---|
|----------------------------|-----------------------------|------------------|
|----------------------------|-----------------------------|------------------|
|----------------------------|-----------------------------|------------------|
|----------------------------|-----------------------------|------------------|


  Q       Q    E  E +E  E    Q   E E  E E Q
|-------------------------|-------------------|
|-------------------------|-------------------|
|---------2-------2-(2)---|------2----0-2-----|
|---------1-------3-(3)---|------3----1-3-----|
|---------1-------3-(3)---|------3----1-3-----|
|-------------------------|-------------------|
|
| S S S S E E +E  E  E  E    E E E E  E E E E
|-3---------------5--3----|-10---8----------8-|
|---5-4-3-1-------------5-|----------10-8-----|
|-----------2-(2)---------|---------------9---|
|-------------------------|-------------------|
|-------------------------|-------------------|
|-------------------------|-------------------|


   Q        Q     E  E +E  E    Q    E E  E E Q
|----------------------------|-------0------------|
|----------------------------|-------1----3-5-----|
|-----------2--------2-(2)---|-------0----3-5-----|
|-----------3--------1-(1)---|------------3-5-----|
|-----------3--------1-(1)---|--------------------|
|----------------------------|--------------------|
|
| +S  S  E  E  E  E  E  E  E    E E  E E  E E Q
|-(8)---11-------------------|-12--------10-8-----|
|----------13----------------|------10------------|
|-------------14-12----12----|----------------8---|
|-------------------14-------|--------------------|
|----------------------------|--------------------|
|----------------------------|--------------------|


  Q   E E E E Q      Q    E E E E   Q
|-----------------|---------------------|
|-----3---3-5-----|-------5---3-5-------|
|-----3---3-5-----|-------5---3-5-------|
|-----3---3-5-----|-------5---3-5-------|
|-----------------|---------------------|
|-----------------|---------------------|
|
| E E E E Q   E E   +E  E E E E S S E E
|-8-6-5-3-----5-3-|-(3)---3-------------|
|---------4-------|-----------4-4-3-1---|
|-----------------|-------------------2-|
|-----------------|---------------------|
|-----------------|---------------------|
|-----------------|---------------------|


  Q  Q  +E  E +E  E   H          +H
|-------------------|-----------------------|
|-------------------|-----------------------|
|----3--(3)---------|-----------------------|
|----5--(5)-4-(4)---|-----------------------|
|----3--(3)-4-(4)---|-5----------(5)--------|
|-------------------|-3----------(3)--------|
|
| H      E  E  E  E   Q  S S S S  E  E E E
|-----------0--1--3-|-1----------------3-5--|
|-1-----------------|----3-5-3-1--3--5------|
|-------------------|-----------------------|
|-------------------|-----------------------|
|-------------------|-----------------------|
|-------------------|-----------------------|


  Q   Q   E E +Q      W
|-------------------|-----------------------|
|-------------------|-----------------------|
|-------------------|-----------------------|
|-------------------|-----------------------|
|-----5-----5-(5)---|-3---------------------|
|-----3-----3-(3)---|-1---------------------|
|
| Q   E E E E  E  E   E E  E  E  E  E  E  E
|-8-----------------|-----15-------14-------|
|----10---8---------|-7-8-------------------|
|-----------9--7--5-|-----------------------|
|-------------------|--------15-16----14-15-|
|-------------------|-----------------------|
|-------------------|-----------------------|


   Q     Q     E  E +Q             +E  E  Q     H
|--------------------------------|-------------------------|
|--------------------------------|-------------------------|
|--------------------------------|-------------------------|
|--------------------------------|-------------------------|
|--------------------------------|-------------------------|
|--------1--------1-(1)----------|-(1)---------------------|
|
|  E  E  E  E  E  E  S   S  S  S    E  E +E  E +E  E +E  E
|-13-------12-----------12-18-20-|-------------------------|
|-------------------11--16-22-24-|-------------------------|
|--------------------------------|-------------------------|
|----13-14----12-13--------------|-------------------------|
|--------------------------------|--3----------------------|
|--------------------------------|-----0-(0)-1-(1)-2-(2)-3-|


   W                        S S S S S S S S S S S S S S S S
|-------------------------|---3-6---3-6---3-6---3-6---3-6---|
|-------------------------|-6-----6-----6-----6-----6-----6-|
|-------------------------|---0-3---0-3---0-3---0-3---0-3---|
|-------------------------|-3-----3-----3-----3-----3-----3-|
|-------------------------|---------------------------------|
|-------------------------|---------------------------------|
|
| +E  E +E  E +E  E +E  E   W
|-------------------------|---------------------------------|
|-------------------------|---------------------------------|
|-------------------------|---------------------------------|
|-------------------------|---------------------------------|
|-------------------------|---------------------------------|
|-(3)-4-(4)-5-(5)-6-(6)-7-|-8-------------------------------|


   S  S S S S S  S S S  S E +Q
|--3--6-3-5-8------8------8-(8)--|
|-------------8-10---8-10--------|
|--0--3-0-2-5------5------5-(5)--|
|-------------5--7---5--7--------|
|--------------------------------|
|--------------------------------|
|
| +W
|--------------------------------|
|--------------------------------|
|--------------------------------|
|--------------------------------|
|--------------------------------|
|-(8)----------------------------|


   S  S S S S S S S H      +E  S S S S E +H       +S  S S S S S E +Q.   S S
|-----6-5-3-5-3---5-3----|-(3)---3-5---3-(3)----|-(3)-----3-6---3-(3)-----3--|
|---------------6--------|-----6-----6----------|-------6-----6---------6----|
|-----3-2-0-2-0---2-0----|-(0)---0-2---0-(0)----|-(0)-----0-3---0-(0)-----0--|
|---------------3--------|-----3-----3----------|-------3-----3---------3----|
|------------------------|----------------------|----------------------------|
|------------------------|----------------------|----------------------------|
|
| +W                       +W                      W
|------------------------|----------------------|----------------------------|
|------------------------|----------------------|----------------------------|
|------------------------|----------------------|----------------------------|
|------------------------|----------------------|----------------------------|
|------------------------|----------------------|----------------------------|
|-(8)--------------------|-(8)------------------|----------------------------|


  S S E +E  S S S S S S +Q     +S  S S S S S E +H
|-6---3-(3)---3-6---3-6-(6)--|-(6)---5-6-5---3-(3)----|
|---6-------6-----6----------|-------------6----------|
|-3---0-(0)---0-3---0-3-(3)--|-(3)---2-3-2---0-(0)----|
|---3-------3-----3----------|-------------3----------|
|----------------------------|------------------------|
|----------------------------|------------------------|


  E S S S S S S S S S S S S S S   S S S S S S S S S S S S S E S
|-----------3-8-6-3---3---------|-------------------------0-0-0--|
|-------4-6---------6---6-4---4-|--------------------------------|
|---5-5-----0-5-3-0---0-----5---|-5-3---3-5-3-5-3----------------|
|-------1-3---------3---3-1---1-|-----5-----------5-3-5-3--------|
|---3-3---------------------3---|-3-------3---3------------------|
|-------------------------------|---6-3-6---6---6-3-1-3-1--------|


  S S S S S S E +E  S S S S S S   S S S S E. S S S S S  S  S  S  S
|---------------------------3-6-|-5-6-5---3----3-5-6-8-10-11-13-15-|
|-------------4-(4)---3-4-6-----|-------6----6---------------------|
|---------3-5---------------0-3-|-2-3-2---0----0-2-3-5--7--8-10-12-|
|-3-5-3-5-----1-(1)---0-1-3-----|-------3----3---------------------|
|-----------3-------------------|----------------------------------|
|-1-3-1-3-6---------------------|----------------------------------|


   S  S  S  S  E.  S  S  S  S  S  S  S  S  S
|-17-18-17-----------------------------------|
|----------18-20--18-16-18-16-15-13-15-13-11-|
|-14-15-14-----------------------------------|
|----------15-17--15-13-15-13-12-10-12-10--8-|
|--------------------------------------------|
|--------------------------------------------|


   S S  S  S S  S  S S  S S S S S S S  S
|-----------------------------8-----8-----|
|-10-8-------8-11----8-11-8-9---8-9---10--|
|----0-10-10-0----10-0----0---5-----5-----|
|--7------------8-------8---6---5-6----7--|
|-------8--8-------8----------------------|
|-----------------------------------------|


   S  S  S  S  S S S  S S S  E  +E   S  S
|----10-------10-7-8-11-7-8-11-(11)-10-11-|
|-11----10-11----0------0-----------------|
|-----7--------7---5--8---5--8--(8)--7--8-|
|--8-----7--8-----------------------------|
|-----------------------------------------|
|-----------------------------------------|


   E E +Q   +E  S S E E   E E Q  +E  S S E E
|-10-8-(8)--(8)-6-8-6-3-|-5---3--(3)---3------|
|-----------------------|---6--------6---6-3--|
|--7-5-(5)--(5)-3-5-3-0-|-2---0--(0)---0------|
|-----------------------|---3--------3---3-0--|
|-----------------------|---------------------|
|-----------------------|---------------------|


  E E E E Q  S S S S   Q  S S  S S  Q   S S  S S   +Q   Q   H
|--------------------|---------------------------|---------------|
|-4---3--------------|---------------------------|---------------|
|---5---4-5--5-7-8-5-|-7--7-8-10-7--8---8-7----7-|-(7)-----------|
|-1---0--------------|-----------0--------0-10-0-|-(0)--9--10----|
|---3----------5-6---|-5--5-6--8-----------------|---------------|
|-------7-8--8-----8-|-------------11--11----8---|------7---8----|


   +Q   E  E Q  Q    Q   E  E  Q   E. S
|------------------|--------------------|
|------------------|--------------------|
|-------7--8-7--7--|-7---8-10--8---8--7-|
|-(10)--0----0--0--|-0----------------0-|
|------------------|--------8-----------|
|--(8)----11-------|----11----11--11----|


   E E  E  E E E E E   Q.   E E  E  +E  E
|--------------------|--------------------|
|--------------8-8-8-|-8----9-8-13-(13)-8-|
|----7--8----7-0-0-0-|-0------0---------0-|
|-10-0----10-0-------|------6---10-(10)---|
|--------------------|--------------------|
|--8---11--8---------|--------------------|


  E E E E +E  E Q    Q  E E S S E E E
|-------8-(8)------|------8---------8-|
|-9-8-9-------8-9--|-8--9---8-9-8-9---|
|---0---5-(5)------|-0----5-----0---5-|
|-6---6-------5-6--|----6---5-6---6---|
|------------------|------------------|
|------------------|------------------|


  S S E E E  E  E  E  E    E  E E E  E E E  E
|---------8-------10----|----10-7-8-11-7-8-11-|
|-8-9-8-9---10-11----10-|-11----0------0------|
|-----0---5--------7----|-----7---5--8---5--8-|
|-5-6---6----7--8-----7-|--8------------------|
|-----------------------|---------------------|
|-----------------------|---------------------|


   E  E  E  E  S  S  E  E  E    E  E  E  E  E  E  E  E
|-10-11-13-------------------|-------------------------|
|----------15-16-15-13-15-16-|-18----------------------|
|--7--8-10-------------------|----19-20-22-24-22-20-22-|
|----------12-13-12-10-12-13-|-15----------------------|
|----------------------------|----17-18-20-22-20----20-|
|----------------------------|-------------------23----|


   Q.    E  S  S  S  S  E  E    E  E  Q   E  E  S  S  S  S
|----------------------------|-------20--------------20-----|
|-------21-20-21-20-18-20-21-|-20-21-----20-21-20-21----20--|
|-24-------------------------|-------17--------------17-----|
|-------18-17-18-17-15-17-18-|-17-18-----17-18-17-18----17--|
|-22-------------------------|------------------------------|
|----------------------------|------------------------------|


   S  S  S  S  S  S  S  S  S  S  S  S  S  S  E
|----20-------22-------22----20-23----20-23-19-|
|-21----22-23----22-23----24-------24----------|
|----17-------19-------19----17-20----17-20-19-|
|-18----19-20----19-20----21-------21-------21-|
|----------------------------------------------|
|----------------------------------------------|


   Q   S  S  S  S  Q   S  S  S  S
|---------------------------------|
|---------------------------------|
|-20--20-20-20-20-19--19-19-19-19-|
|-22--22-22-22-22-21--21-21-21-21-|
|-18--18-18-18-18-17--17-17-17-17-|
|-20--20-20-20-20-19--19-19-19-19-|


   Q   S  S  S  S  Q   S  S  S  S
|---------------------------------|
|---------------------------------|
|-20--20-20-20-20-22--22-22-22-22-|
|-22--22-22-22-22-24--24-24-24-24-|
|-18--18-18-18-18-20--20-20-20-20-|
|-20--20-20-20-20-22--22-22-22-22-|


   Q   S  S  S  S  Q   S  S  S  S    Q   S  S  S S  Q   S  S  S S
|---------------------------------|--------------------------------|
|---------------------------------|--------------------------------|
|-20--20-20-20-20-19--19-19-19-19-|-20--20-20-20---22--22-22-22----|
|-22--22-22-22-22-21--21----21-21-|-22--22-22-22---24--24-24-24----|
|-18--18-18-18-18-17--17-17-17-17-|-18--18-18-18---20--20-20-20----|
|-20--20-20-20-20-19--19----19-19-|-20--20-20-20---22--22-22-22----|


   S S  E  S S  S  S  Q   S S  S  S
|-----------------------------------|
|-----------------------------------|
|-20---20-20---20-20-19--19---19-19-|
|-22---22-22---22-22-21--21---21-21-|
|-18---18-18---18-18-17--17---17-17-|
|-20---20-20---20-20-19--19---19-19-|


   Q   S S  S  S  E  S S  E  S  S    Q   S  S S  S  Q   S  S S  S
|---------------------------------|-------------------------------|
|---------------------------------|-------------------------------|
|-20--20---20-20-22-22---22-22-22-|-20--20-20---20-19--19-19---19-|
|-22--22---22-22-24-24---24-24-24-|-22--22-22---22-21--21-21---21-|
|-18--18---18-18-20-20---20-20-20-|-18--18-18---18-17--17-17---17-|
|-20--20---20-20-22-22---22-22-22-|-20--20-20---20-19--19-19---19-|


   Q   S  S S  S  Q   S  S S  S    E  E  +S  S  E  +S  S  E  +S  S  E
|-------------------------------|-------------------------------------|
|-------------------------------|----21-(21)---20-(20)---21-(21)---20-|
|-20--20-20---20-22--22-22---22-|-24-20-(20)---19-(19)---20-(20)---19-|
|-22--22-22---22-24--24-24---24-|-24----(18)---17-(17)---18-(18)---17-|
|-18--18-18---18-20--20-20---20-|-22-23-(18)---17-(17)---18-(18)---17-|
|-20--20-20---20-22--22-22---22-|-22-23-------------------------------|


   +S  S  E  +S  S  E  +S  S  E  +S  S  E
|-----------------------------------------|
|-(20)---21-(21)---20-(20)---21-(21)---20-|
|-(19)---20-(20)---19-(19)---20-(20)---19-|
|-(17)---18-(18)---17-(17)---18-(18)---17-|
|-(17)---18-(18)---17-(17)---18-(18)---17-|
|-----------------------------------------|


   +E   E  +E   E  +E   E  +E   E
|---------------------------------|
|-(20)-21-(21)-20-(20)-21-(21)-20-|
|-(19)-20-(20)-19-(19)-20-(20)-19-|
|-(17)-18-(18)-17-(17)-18-(18)-17-|
|-(17)-18-(18)-17-(17)-18-(18)-17-|
|---------------------------------|


   +E   E  +E   E  +E   E  +E   E    E S S +Q   +H        W
|---------------------------------|-20-0---------------|-------|
|-(20)-21-(21)-22-(22)-23-(23)-24-|-20-----------------|-22----|
|-(19)-20-(20)-21-(21)-22-(22)-23-|-21---5-(5)--(5)----|-22----|
|-(17)-18-(18)-19-(19)-20-(20)-21-|------5-(5)--(5)----|-------|
|-(17)-18-(18)-19-(19)-20-(20)-21-|------3-(3)--(3)----|-------|
|---------------------------------|--------------------|-------|


   W           W           H     +Q..    S    W
|-----------|-----------|-20----(20)-------|-------|
|-23--------|-22--------|-20----(20)----22-|-------|
|-24--------|-22--------|-21----(21)-------|-22----|
|-----------|-----------|-22----(22)-------|-------|
|-----------|-----------|-22----(22)-------|-------|
|-----------|-----------|------------------|-------|


  Gtr I
   W
|------------------------------------|
|------------------------------------|
|------------------------------------|
|------------------------------------|
|------------------------------------|
|------------------------------------|
|
| Gtr II
|  W
|------------------------------------|
|------------------------------------|
|------------------------------------|
|------------------------------------|
|------------------------------------|
|------------------------------------|
|
| Gtr III
|  Q   S  S  S  S  S  S  S S S S S S
|------------------------------------|
|-23--21-19-17-------------2-2-------|
|-24--24-22-20-18-16-------6-3-3---2-|
|--------------22-19-16-17-----7-3-2-|
|--------------------20-19-------5-6-|
|------------------------------------|


                        Verse 3
   Q      Q  E E +Q      H      +Q.       E
|---------------------||---------------------|
|---------------------||---------------------|
|---------------------||---------------------|
|---------5--3-1-(1)--||---------------------|
|---------------------||-3------(3)----------|
|---------------------||---------------------|
|
|  W                     H       S  S E E E
|---------------------||---------------------|
|---------------------||------------------3--|
|---------------------||---------5----5-5----|
|---------------------||---------------------|
|---------------------||---------------------|
|---------------------||---------------------|
|
| +S  S E Q  H           Q  E E  E    E Q
|---------------------||----0----------------|
|---------------------||----1----3----5------|
|-(2)-----------------||----0----3----5------|
|-(2)-----------------||---------3----5------|
|-(6)-----------------||---------------------|
|---------------------||---------------------|


   H            +Q.           E    Q        E E E E Q    Q  E E E E Q
|-------------------------------|----------------------|---------------|
|-------------------------------|-----------1----------|---------------|
|--2------------(2)-------------|-----------0---3-5----|----5---3-5----|
|--3------------(3)-------------|---------------3-5----|----5---3-5----|
|--3------------(3)-------------|----------------------|---------------|
|-------------------------------|----------------------|---------------|
|
| +S  S S S E E +S  S E  E    E   +S  S S S Q   H        W
|-------------------------------|----------------------|---------------|
|-(3)---3---3-3-(3)-------------|----------------------|---------------|
|---------------------2--1----0-|-(0)---0--------------|---------------|
|-------------------------------|-----------2----------|---------------|
|-------------------------------|----------------------|---------------|
|-------------------------------|----------------------|---------------|
|
|  Q        E E  E    E +S  S E    Q        E E E E Q    Q  E E E E Q
|-------------------------------|----------------------|---------------|
|-----------6---------6-(6)-----|-----------5---3-5----|----5---3-5----|
|-----------5---------5-(5)-----|-----------5---3-5----|----5---3-5----|
|-----------7---------7-(7)-----|-----------5---3-5----|----5---3-5----|
|-------------------------------|----------------------|---------------|
|-------------------------------|----------------------|---------------|


  Q  E E  E    E  Q        H              E    E Q
|------------------------|---------------------------|
|------------------------|---------------------------|
|------------------------|---------------------------|
|----5---------5---------|-7--------------5----7-----|
|---------8--------------|-8--------------6----8-----|
|----8----6----8---------|-8--------------6----8-----|
|
| Q  E E +S  S E +S  S E   S S E +S  S E +S  S E E E
|------------------------|---------------------------|
|------5-(5)---5-(5)---5-|-6---6-(6)---6-(6)---6-6-8-|
|------------------------|---------------------------|
|------------------------|---------------------------|
|------------------------|---------------------------|
|------------------------|---------------------------|
|
| Q  E E  E    E  Q        H             +H
|------------------------|---------------------------|
|----5----3----5---------|---------------------------|
|----5----3----5---------|-5-------------(5)---------|
|----5----3----5---------|-7-------------(7)---------|
|------------------------|-8-------------(8)---------|
|------------------------|---------------------------|


   Q    E E E E Q    Q  E E E E Q
|------------------|----------------|
|------------------|----------------|
|------------------|----------------|
|-------------5----|----5-----5-----|
|------10---8------|--------8-------|
|-------8---6-8----|----8---6-8-----|
|
| +W                 H      E E Q
|------------------|----------------|
|-(8)--------------|----------6-5---|
|------------------|----------------|
|------------------|----------------|
|------------------|----------------|
|------------------|----------------|
|
|  Q    E E E E Q    Q  E E E E Q
|------------------|----------------|
|-------5---3-5----|----5---3-5-----|
|-------5---3-5----|----5---3-5-----|
|-------5---3-5----|----5---3-5-----|
|------------------|----------------|
|------------------|----------------|


 Pre-Chorus
  H       +H        E  E  E    E +Q.         E
|----------------|-------------------------------|
|----------------|-------------------------------|
|----------------|--2--0-------------------------|
|-3-------(3)----|--3--2-------3-(3)-------------|
|-3-------(3)----|-------------3-(3)-------------|
|-5-------(5)----|-------------5-(5)-------------|
|
| Q..   S +H       +Q    +S  S E  E    E  E  E
|-------5-(5)----|-(5)---(5)---5-------3-----1---|
|-3--------------|-------------------------------|
|----------------|-------------------------------|
|----------------|-------------------------------|
|----------------|-------------------------------|
|----------------|-------------------------------|
|
| W                 E  E +S  S E +S  S E +E.   S
|-5--------------|--7--5-(5)---3-(3)---5-(5)---7-|
|-6--------------|-----------------------------8-|
|-5--------------|-------------------------------|
|----------------|-------------------------------|
|----------------|-------------------------------|
|----------------|-------------------------------|


  H          +H        E  E E E +Q.       E
|-------------------|-----------------------|
|-------------------|-----------------------|
|-0----------(0)----|--4--2---0-(0)---------|
|-0----------(0)----|--3--2---0-(0)---------|
|-2----------(2)----|---------2-(2)---------|
|-------------------|-----------------------|
|
| Q  +S  S E  H       +H        +H
|-3--(3)------7-----|-(7)-------(7)---------|
|-------------------|-----------------------|
|-------------------|-----------------------|
|-------------------|-----------------------|
|-------------------|-----------------------|
|-------------------|-----------------------|
|
| W                    E  E E E +E  E +Q
|-------------------|--8--7---5-(5)-7-(7)---|
|-------------------|-----------------------|
|-7-----------------|-----------------------|
|-------------------|-----------------------|
|-------------------|-----------------------|
|-------------------|-----------------------|


 Chorus
   Q   Q  Q   Q     Q  Q   H
|----------------|------------------------|
|-------------6--|--5---------------------|
|--3---5------5--|--5---------------------|
|--3---5------7--|--5---------------------|
|----------------|------------------------|
|----------------|------------------------|
|
|  Q   Q  H         H      E  E  +S  S  E
|----------------|------------------------|
|----------------|------------------------|
|----------------|------------------------|
|--8--10---------|--------10-10-(10)---10-|
|----------------|------------------------|
|----------------|------------------------|
|
|  Q   Q  Q   Q     Q  Q   H
|-13--12-----10--|-12---------------------|
|-13--13-----11--|-13---------------------|
|-14--12-----10--|-12---------------------|
|----------------|------------------------|
|----------------|------------------------|
|----------------|------------------------|


   Q   Q  Q   Q     Q  Q   H
|----------------|------------------------|
|-------------6--|--5---------------------|
|--3---5------5--|--5---------------------|
|--3---5------7--|--5---------------------|
|----------------|------------------------|
|----------------|------------------------|
|
|  Q   Q  H         H      S S  E E  S S
|----------------|------------------------|
|----------------|------------------------|
|----------------|------------------------|
|-12--10---------|--------10---10---10----|
|----------------|------------------------|
|----------------|------------------------|
|
|  Q   Q  Q   Q     Q  Q   H
|-10--12-----10--|-12---------------------|
|-11--13-----11--|-13---------------------|
|-10--12-----10--|-12---------------------|
|----------------|------------------------|
|----------------|------------------------|
|----------------|------------------------|


   Q   Q  Q   Q     Q  Q      H            Q   Q  Q   Q     Q  Q   H
|----------------|----------------------|----------------|--------------------|
|-------------6--|--5-------------------|-------------6--|--5-----------------|
|--3---5------5--|--5-------------------|--3---5------5--|--5-----------------|
|--3---5------7--|--5-------------------|--3---5------7--|--5-----------------|
|----------------|----------------------|----------------|--------------------|
|----------------|----------------------|----------------|--------------------|
|
|  Q   Q  H         Q  E S S  S E. +Q      Q   Q  H         Q  E E S S E +Q
|----------------|----------------------|----------------|--------------------|
|----------------|----------------------|----------------|---------1----------|
|----------------|----------------------|--7---5---------|-------3-----3-(3)--|
|--8--10---------|-------8---10-8--(8)--|----------------|--------------------|
|----------------|----------------------|----------------|--------------------|
|----------------|----------------------|----------------|--------------------|
|
|  Q   Q  Q   Q     Q  Q      H            Q   Q  Q   Q     Q  Q   H
|-13--12-----10--|-12-------------------|-10--12-----10--|-12-----------------|
|-13--13-----11--|-13-------------------|-11--13-----11--|-13-----------------|
|-14--12-----10--|-12-------------------|-10--12-----10--|-12-----------------|
|----------------|----------------------|----------------|--------------------|
|----------------|----------------------|----------------|--------------------|
|----------------|----------------------|----------------|--------------------|


   Q   Q  Q   Q     Q  Q      H
|----------------|------------------------|
|-------------6--|--5---------------------|
|--3---5------5--|--5---------------------|
|--3---5------7--|--5---------------------|
|----------------|------------------------|
|----------------|------------------------|
|
|  Q   Q  H         Q  E S S +S  S E +Q
|----------------|------------------------|
|--3---1---------|---------------1--------|
|----------------|---------3-(3)---3-(3)--|
|----------------|------------------------|
|----------------|------------------------|
|----------------|------------------------|
|
|  Q   Q  Q   Q     Q  Q      H
|-13--12-----10--|-12---------------------|
|-13--13-----11--|-13---------------------|
|-14--12-----10--|-12---------------------|
|----------------|------------------------|
|----------------|------------------------|
|----------------|------------------------|


   Q   Q  Q   Q     Q  Q   H
|----------------|---------------------|
|-------------6--|--5------------------|
|--3---5------5--|--5------------------|
|--3---5------7--|--5------------------|
|----------------|---------------------|
|----------------|---------------------|
|
|  Q   Q  H         Q  E E S S E +Q
|----------------|---------------------|
|--3---1---------|---------1-----------|
|----------------|-------3-----3-(3)---|
|----------------|---------------------|
|----------------|---------------------|
|----------------|---------------------|
|
|  Q   Q  Q   Q     Q  Q   H
|-10--12-----10--|-12------------------|
|-11--13-----11--|-13------------------|
|-10--12-----10--|-12------------------|
|----------------|---------------------|
|----------------|---------------------|
|----------------|---------------------|


   Q   Q  Q   Q     Q  Q   H             Q   Q  Q   Q     Q  Q  H
|----------------|--------------------|----------------|-------------|
|-------------6--|--5-----------------|-------------6--|--5----------|
|--3---5------5--|--5-----------------|--3---5------5--|--5----------|
|--3---5------7--|--5-----------------|--3---5------7--|--5----------|
|----------------|--------------------|----------------|-------------|
|----------------|--------------------|----------------|-------------|
|
|  Q   Q  H         Q  E E S S E +Q      Q   Q  H         W
|----------------|--------------------|----------------|-------------|
|--3---1---------|---------1----------|--3---1---------|-------------|
|----------------|-------3-----3-(3)--|----------------|-------------|
|----------------|--------------------|----------------|-------------|
|----------------|--------------------|----------------|-------------|
|----------------|--------------------|----------------|-------------|
|
|  Q   Q  Q   Q     Q  Q   H             Q   Q  Q   Q     Q  Q  H
|-13--12-----10--|-12-----------------|-10--12-----10--|-12----------|
|-13--13-----11--|-13-----------------|-11--13-----11--|-13----------|
|-14--12-----10--|-12-----------------|-10--12-----10--|-12----------|
|----------------|--------------------|----------------|-------------|
|----------------|--------------------|----------------|-------------|
|----------------|------------------
Добавлено: 23.06.2012
Другие материалы по этой песне:

Страница создана 01.03.2012
http://primanota.ru/deep-purple/kentucky-woman-chords.htm
Привет, Гость.
Предлагаем пройти революционный курс по гитаре.
Подарок от PrimaNota.Ru, забирай!