PrimaNota.ru - самый крупный в мире бесплатный архив песенных текстов, аккордов, табулатур и нот


Deep Purple - Dead Or Alive - текст песни, таба, бас-таба, видео

Регистрация Запомнить меня
Войти через:  Facebook Google Twitter Vk Yandex Mail.ru

Deep Purple - Dead Or Alive - текст песни, таба, бас-таба, видео

Печатать
Просмотров: 314
Авторы музыки: Roger Glover, Ritchie Blackmore, Ian Gillan

Band: Deep Purple
Song: Dead Or Alive



Rhythm Guitar:

     Am                                                                   
                                            PM                            
     E  S  S   S  S  S S E  E  S S S S    S S  S  S   S  S  S S H         
E||------------------------------------|---------------------------------|
B||------------------------------------|---------------------------------|
G||-----5-(2)-(2)-4p-2---2--0----------|-------5-(2)-(2)-4p-2---2--------|
D||--------------------4-------3-2-0-2-|----2-----------------4----------|
A||--0---------------------------------|--0------------------------------|
E||------------------------------------|---------------------------------|


                                                         G    
  S S S  S   S  S  S S E  E  S S S S    S S S  S   S  S  S S  
-------------------------------------|-----------------------|
-------------------------------------|-----------------------|
------5-(2)-(2)-4p-2---2--0----------|------5-(2)-(2)-4p-2---|
----2----------------4-------3-2-0---|----2----------------4-|
--0--------------------------------3-|--0--------------------|
-------------------------------------|-----------------------|


  D                                           Am                       
  W                   H        Q     E  E     E  E  S E.  E  S S Q     
--2----------------|--2--------3p----2-----|--------------------------|
--3----------------|--3--------3-----------|-----5----6---3----5-L----|
--2----------------|--2--------2--------x--|-----5----7---4----5-L----|
--0----------------|--0--------0--------x--|--------------------------|
-------------------|-----------------------|--0-----0--------0--------|
-------------------|-----------------------|--------------------------|


                                                          C          G         
  E  E  S E.  E  S S E  E     E  E  S E.  E  S S E  E     E.  E.  E  H         
---------------------------|---------------------------|----------------------|
-----5----3----------------|-----5----6---3----5-L--6--|--8---6---5--3--------|
-----5----4---4----2-L--0--|-----5----7---4----5-L--7--|--9---7---5--4--------|
--------------5----2-L-----|---------------------------|----------------------|
--0-----0--------0---------|--0-----0--------0---------|----------------------|
---------------------------|---------------------------|----------------------|


  Am                                                   
  E  E  S E.  E  S S Q       E  E  S E.  E  S S E  E   
--------------------------|---------------------------|
-----5----6---3----5-L----|-----5----3----------------|
-----5----7---4----5-L----|-----5----4---4----2-L--0--|
--------------------------|--------------5----2-L-----|
--0-----0--------0--------|--0-----0--------0---------|
--------------------------|---------------------------|


                                                              Dm                
                               F    C       C    G                              
  E  E  S E.  E  S S E  E      E.   S  Q    E.   S  Q         W                 
---------------------------|-------(8)-L--------(3)-L----||--------------------|
-----5----6---3----5-L-----|--10----8--L----5----3--L----||--------------------|
-----5----7---4----5-L-----|--10----9--L----5----4--L----||*-------------------|
---------------------------|--10---10--L----5----5--L----||*--7----------------|
--0-----0--------0------0--|---8---10--L----3----5--L----||---5----------------|
---------------------------|--------8--L---------3--L----||--------------------|


                                 C                                        
                       NH                                                 
   E   Q.     S S S    S Q       E  E  H.              Q    H.            
------------------------------|---------------------|--------------------|
------------------------------|-----5--L------------|--6----5------------|
------------------------------|-----5--L------------|--5----5------------|
--------------x-x-x-<>12-L----|-----5--L------------|--5----5------------|
--------------x-x-x-<>12-L----|--3------------------|--------------------|
--10--10----------------------|---------------------|--------------------|


   Dm                                                             
   E   E  S  S S S  E.   S  Q        E   E  S  S S S  Q     Q     
---------------------------------|-------------------------------|
---------------------------------|-------------------------------|
-------------------10------------|-------------------10----------|
------12--x-12-x-x-10---12--L----|------12--x-12-x-x-10----12----|
------12--x-12-x-x------12--L----|------12--x-12-x-x-------12----|
--10-----------------------------|--10---------------------------|


  Am                                                         
  E   E  S  S S S  E.   E.   E     E  E  S S S S E.  S Q     
--------------------------------|---------------------------|
--------------------------------|---------------------------|
-----14--x-12-x-x-10---12----9--|-----7--x-5-x-x-4---2-L----|
-----14--x-12-x-x-10---12---10--|-----7--x-5-x-x-5---2-L----|
--0-----------------------------|--0------------------------|
--------------------------------|---------------------------|


   Dm                                                           
   E   E  S  S S S  E.   S  Q        E   E  S  S S S  H         
---------------------------------|-----------------------------|
---------------------------------|-----------------------------|
-------------------10------------|-------------------10--------|
------12--x-12-x-x-10---12--L----|------12--x-12-x-x-10--------|
------12--x-12-x-x------12--L----|------12--x-12-x-x-----------|
--10-----------------------------|--10-------------------------|


  C                      E                           
  E  Q.     Q    Q       E  E  S E.   E  S S S S E   
----------------------|-----------------------------|
-----5------6----5----|-----------------------------|
-----5------5----5----|-----9----7---10----7-L---9--|
-----5------5----5----|-----9----9----9----9-L---9--|
--3-------------------|-----------------------------|
----------------------|--0--------------------------|


  E  E  S E.   E  S S E  E     E  E  S E.   E  S S S S E   
----------------------------|-----------------------------|
----------------------------|-----------------------------|
-----9----7---10----7-L-----|-----9----7---10----7-L---9--|
-----9----9----9----9-L-----|-----9----9----9----9-L---9--|
----------------------------|-----------------------------|
--0-------------------------|--0--------------------------|


                           Am                                                   
  E  E  S E.  Q    Q       E  E  S E.  E  S S Q       E  E  S E.  E  S S E  E   
------------------------|--------------------------|---------------------------|
--------------5----5----|-----5----6---3----5-L----|-----5----3----------------|
-----9----7---5----4----|-----5----7---4----5-L----|-----5----4---4----2-L--0--|
-----9----9-------------|--------------------------|--------------5----2-L-----|
------------------------|--0-----0--------0--------|--0-----0--------0---------|
--0---------------------|--------------------------|---------------------------|


                              C       G              Am                       
  E  E  S E.  E  S S E  E     E.  E.  E  H           E  E  S E.  E  S S Q     
---------------------------|----------------------|--------------------------|
-----5----6---3----5-L--6--|--8---6---5--3--------|-----5----6---3----5-L----|
-----5----7---4----5-L--7--|--9---7---5--4--------|-----5----7---4----5-L----|
---------------------------|----------------------|--------------------------|
--0-----0--------0---------|----------------------|--0-----0--------0--------|
---------------------------|----------------------|--------------------------|


  E  E  S E.  E  S S E  E     E  E  S E.  E  S S E  E   
---------------------------|---------------------------|
-----5----3----------------|-----5----6---3----5-L-----|
-----5----4---4----2-L--0--|-----5----7---4----5-L-----|
--------------5----2-L-----|---------------------------|
--0-----0--------0---------|--0-----0--------0------0--|
---------------------------|---------------------------|


   F    C       C    G             F    C       C    G        
   E.   S  Q    E.   S  Q          E.   S  Q    E.   S  Q     
-------(8)-L--------(3)-L-----||-------(8)-L--------(3)-L----|
--10----8--L----5----3--L-----||--10----8--L----5----3--L----|
--10----9--L----5----4--L----*||--10----9--L----5----4--L----|
--10---10--L----5----5--L----*||--10---10--L----5----5--L----|
---8---10--L----3----5--L-----||---8---10--L----3----5--L----|
--------8--L---------3--L-----||--------8--L---------3--L----|


  Am                                                                            
  W                   W                   W                   W                 
-------------------|-------------------|-------------------|-------------------|
-------------------|-------------------|-------------------|-------------------|
-------------------|-------------------|-------------------|-------------------|
-------------------|-------------------|-------------------|-------------------|
--7----------------|--L----------------|--7----------------|--L----------------|
--5----------------|--L----------------|--5----------------|--L----------------|


                      Dm                  E        c         
  W                   W                   H        H         
-------------------|-------------------|--------------------|
-------------------|-------------------|--------------------|
-------------------|-------------------|--------------------|
-------------------|--7----------------|--9--------5--------|
--7----------------|--5----------------|--7--------3--------|
--5----------------|-------------------|--------------------|


  C#       D           D#          E                                       
  H        H           H           W                   Q    H        Q     
--------------------|-----------|-------------------|---------------------|
--------------------|-----------|-------------------|---------------------|
--------------------|-----------|-------------------|---------------------|
--6--------7--------|--8--------|--9----------------|--L------------------|
--4--------5--------|--6--------|--7----------------|--L------------------|
--------------------|-----------|-------------------|---------------------|


  Am                  E                   Am/C      C/E        
  W                   W                   Q    Q    Q    Q     
-------------------|-------------------|----------------------|
-------------------|-------------------|----------------------|
-------------------|-------------------|----------------------|
-------------------|-------------------|-----------------5----|
-------------------|-------------------|-------5----7---------|
--5----------------|--4----------------|--8-------------------|


  F         E/G          Am       Am/C        E/G      E          
  Q    Q    Q    Q       H        H           H        Q.     E   
----------------------|--------------------|---------------------|
----------------------|--------------------|---------------------|
----------------------|--------------------|---------------------|
-------7----6----9----|--------------------|---------------------|
--8-------------------|--------------------|-----------7------5--|
----------------------|--5--------8--------|--4------------------|


  Am   G    C            F         E             Am                 
  Q    Q    Q    Q       Q    Q    Q    Q        H        H         
----------------------|----------------------|---------------------|
----------------------|----------------------|---------------------|
----------------------|----------------------|---------------------|
-----------------5----|-------7----6----9----|--10-----------------|
-------5----7---------|--8-------------------|------------7--------|
--8-------------------|----------------------|---------------------|


  Dm                      B7                     E                     
  Q    Q     Q    Q       Q    Q    Q    Q       Q    Q     Q    Q     
-----------------------|----------------------|-----------------------|
-----------------------|----------------------|-----------------------|
-----------------------|----------------------|--9----7---------------|
-----------------------|-----------------7----|------------10----9----|
--8----7---------------|-------6----9---------|-----------------------|
------------10----8----|--7-------------------|-----------------------|


  C               Am           Dm             E           C         Am         
       |---3---|                      |--3--|                                  
  Q    E   E   E  Q    Q       Q.     S  S  S H           Q    Q    Q    Q     
----------------------------|--------------------------|----------------------|
----------------------------|--------------------------|--5--------------5----|
--5----4h--5p--4-------5----|--7------5h-7p-5-4--------|-------7----5---------|
------------------7---------|--------------------------|----------------------|
----------------------------|--------------------------|----------------------|
----------------------------|--------------------------|----------------------|


  Dm       G           C         Am           Dm        E         
  H        H           Q    Q    Q    Q       Q.     E  H         
--------------------|----------------------|---------------------|
--6-----------------|--5--------------5----|--L------------------|
-----------4--------|-------7----5---------|---------7--4--------|
--------------------|----------------------|---------------------|
--------------------|----------------------|---------------------|
--------------------|----------------------|---------------------|


  C         Am           G                                     
  Q    Q    Q    Q       W                   W                 
----------------------|-------------------|-------------------|
--5-------------------|-------------------|-------------------|
-------7----5----7----|-------------------|-------------------|
----------------------|--5----------------|--L----------------|
----------------------|-------------------|-------------------|
----------------------|-------------------|-------------------|


  Am                                                                   
                                         PM                            
  E  S  S   S  S  S S E  E  S S S S    S S  S  S   S  S  S S H         
------------------------------------|---------------------------------|
------------------------------------|---------------------------------|
-----5-(2)-(2)-4p-2---2--0----------|-------5-(2)-(2)-4p-2---2--------|
--------------------4-------3-2-0-2-|----2-----------------4----------|
--0---------------------------------|--0------------------------------|
------------------------------------|---------------------------------|


                                                   G          
  S S S  S   S  S  S S E  E  S S S S    S S S  S   S  S  S S  
-------------------------------------|-----------------------|
-------------------------------------|-----------------------|
------5-(2)-(2)-4p-2---2--0----------|------5-(2)-(2)-4p-2---|
----2----------------4-------3-2-0---|----2----------------4-|
--0--------------------------------3-|--0--------------------|
-------------------------------------|-----------------------|


  D                                       Gm7                         
  W                   W                   E   S S S S E  E.  S E  E   
--2----------------|--3----------------|-----------------------------|
--3----------------|--3----------------|-----------------------------|
--2----------------|--2----------------|-----------------------------|
--0----------------|--0----------------|--------5---3----5---3----5--|
-------------------|-------------------|-----------------------------|
-------------------|-------------------|--3--------------------------|


  E  E  S S E  H           E  E  S S E  E.  S E  E     E  E  S S E  H         
------------------------|---------------------------|------------------------|
------------------------|---------------------------|------------------------|
------------------------|---------------------------|------------------------|
-----5----3----5--------|--L--5----3----5---3----5--|--L--5----3----5--------|
------------------------|---------------------------|------------------------|
--3---------------------|---------------------------|------------------------|


  A7                                                 
  E  E  S S E  E.  S E  E     E  E  S S E  H         
---------------------------|------------------------|
---------------------------|------------------------|
---------------------------|------------------------|
-----7----5----7---5----7--|-----7--5-7----5--------|
---------------------------|------------------------|
--5------------------------|--5---------------------|


                                                  Am                       
  E  E  S S E  E.  S E  E     W                   E  E  E  E  E  E  E  E   
---------------------------|-------------------|--------------------------|
---------------------------|-------------------|-----5--------------------|
---------------------------|-------------------|--------7--5--4-----4--5--|
-----7----5----7---5----7--|--L----------------|-----------------7--------|
---------------------------|-------------------|--0-----------------------|
--5------------------------|-------------------|--------------------------|


  E  E  E  E  E  E  E  E     E  E  E  E  E  E  E  E   
--------------------------|--------------------------|
-----5--------------------|-----5--------------------|
--------7--5--4-----4-----|--------7--5--4-----4--5--|
-----------------7-----5--|-----------------7--------|
--0-----------------------|--0-----------------------|
--------------------------|--------------------------|


  Bm7b5               Em             Dm          C            
  |----3---|                                                  
  S     S  S E  E  E  E  E  E  E     E  E  E  E  E  E  E  E   
----------------------------------|--------------------------|
----------------------------------|--------------------------|
--4h----5p-4----------------------|--------------------------|
-------------7--5--3--2--5--3--2--|-----3--2--------2--------|
----------------------------------|--5--------5--3-----5--3--|
----------------------------------|--------------------------|


  Bm7b5          G              C        C/E         F        Bb        
  E     E  E  E  E  E  E  E     H        H           H        H         
-----------------------------|--------------------|--------------------|
-----------------------------|--------------------|--------------------|
-----------------------------|--------------------|-----------3--------|
-----------------5--3--2-----|-----------2--------|--3-----------------|
--2-----------------------5--|--3-----------------|--------------------|
--------5--3--1--------------|--------------------|--------------------|


  A        A/C         Dm       D/F         G        E/G       
  H        H           H        H           H        H         
--------------------|--------------------|--------------------|
--------------------|--------------------|--------------------|
--------------------|--------------------|--------------------|
--------------------|--------------------|--------------------|
-----------4--------|--5-----------------|--------------------|
--5-----------------|-----------2--------|--3--------4--------|


  Am                                                                       
  E  E  S S E  H           E  E  S S E  H           E  E  S S E  H         
------------------------|------------------------|------------------------|
------------------------|------------------------|------------------------|
------------------------|------------------------|------------------------|
-----7----5----7--------|-----7----5----7--------|-----7----5----7--------|
------------------------|------------------------|------------------------|
--5---------------------|--5---------------------|--5---------------------|


                           Dm                                               
                                                                    NH      
  E  E  S S E  H           W                    E   Q.     S S S    S Q     
------------------------|-------------------|------------------------------|
------------------------|-------------------|------------------------------|
------------------------|-------------------|------------------------------|
-----7----5----7--------|--7----------------|--------------x-x-x-<>12-L----|
------------------------|--5----------------|--------------x-x-x-<>12-L----|
--5---------------------|-------------------|--10--10----------------------|


  C                                           Dm                             
  E  E  H.              Q    H.               E   E  S  S S S  E.   S  Q     
---------------------|--------------------|---------------------------------|
-----5--L------------|--6----5------------|---------------------------------|
-----5--L------------|--5----5------------|-------------------10------------|
-----5--L------------|--5----5------------|------12--x-12-x-x-10---12--L----|
--3------------------|--------------------|------12--x-12-x-x------12--L----|
---------------------|--------------------|--10-----------------------------|


                                  Am                             
   E   E  S  S S S  Q     Q       E   E  S  S S S  E.   E.   E   
-------------------------------|--------------------------------|
-------------------------------|--------------------------------|
-------------------10----------|-----14--x-12-x-x-10---12----9--|
------12--x-12-x-x-10----12----|-----14--x-12-x-x-10---12---10--|
------12--x-12-x-x-------12----|--0-----------------------------|
--10---------------------------|--------------------------------|


                               Dm                             
  E  E  S S S S E.  S Q        E   E  S  S S S  E.   S  Q     
---------------------------|---------------------------------|
---------------------------|---------------------------------|
-----7--x-5-x-x-4---2-L----|-------------------10------------|
-----7--x-5-x-x-5---2-L----|------12--x-12-x-x-10---12--L----|
--0------------------------|------12--x-12-x-x------12--L----|
---------------------------|--10-----------------------------|


                                C                    
   E   E  S  S S S  H           E  Q.     Q    Q     
-----------------------------|----------------------|
-----------------------------|-----5------6----5----|
-------------------10--------|-----5------5----5----|
------12--x-12-x-x-10--------|-----5------5----5----|
------12--x-12-x-x-----------|--3-------------------|
--10-------------------------|----------------------|


  E                                                        
  E  E  S E.   E  S S S S E     E  E  S E.   E  S S E  E   
-----------------------------|----------------------------|
-----------------------------|----------------------------|
-----9----7---10----7-L---9--|-----9----7---10----7-L-----|
-----9----9----9----9-L---9--|-----9----9----9----9-L-----|
-----------------------------|----------------------------|
--0--------------------------|--0-------------------------|


  E  E  S E.   E  S S S S E     E  E  S E.  Q    Q     
-----------------------------|------------------------|
-----------------------------|--------------5----5----|
-----9----7---10----7-L---9--|-----9----7---5----4----|
-----9----9----9----9-L---9--|-----9----9-------------|
-----------------------------|------------------------|
--0--------------------------|--0---------------------|


  Am                                                   
  E  E  S E.  E  S S Q       E  E  S E.  E  S S E  E   
--------------------------|---------------------------|
-----5----6---3----5-L----|-----5----3----------------|
-----5----7---4----5-L----|-----5----4---4----2-L--0--|
--------------------------|--------------5----2-L-----|
--0-----0--------0--------|--0-----0--------0---------|
--------------------------|---------------------------|


                              C       G              Am                       
  E  E  S E.  E  S S E  E     E.  E.  E  H           E  E  S E.  E  S S Q     
---------------------------|----------------------|--------------------------|
-----5----6---3----5-L--6--|--8---6---5--3--------|-----5----6---3----5-L----|
-----5----7---4----5-L--7--|--9---7---5--4--------|-----5----7---4----5-L----|
---------------------------|----------------------|--------------------------|
--0-----0--------0---------|----------------------|--0-----0--------0--------|
---------------------------|----------------------|--------------------------|


  E  E  S E.  E  S S E  E     E  E  S E.  E  S S E  E   
---------------------------|---------------------------|
-----5----3----------------|-----5----6---3----5-L-----|
-----5----4---4----2-L--0--|-----5----7---4----5-L-----|
--------------5----2-L-----|---------------------------|
--0-----0--------0---------|--0-----0--------0------0--|
---------------------------|---------------------------|


                                Am                       
   F    C       C    G                                   
   E.   S  Q    E.   S  Q       E  E  S E.  E  S S Q     
-------(8)-L--------(3)-L----|--------------------------|
--10----8--L----5----3--L----|-----5----6---3----5-L----|
--10----9--L----5----4--L----|-----5----7---4----5-L----|
--10---10--L----5----5--L----|--------------------------|
---8---10--L----3----5--L----|--0-----0--------0--------|
--------8--L---------3--L----|--------------------------|


                                                          C       G            
  E  E  S E.  E  S S E  E     E  E  S E.  E  S S E  E     E.  E.  E  H         
---------------------------|---------------------------|----------------------|
-----5----3----------------|-----5----6---3----5-L--6--|--8---6---5--3--------|
-----5----4---4----2-L--0--|-----5----7---4----5-L--7--|--9---7---5--4--------|
--------------5----2-L-----|---------------------------|----------------------|
--0-----0--------0---------|--0-----0--------0---------|----------------------|
---------------------------|---------------------------|----------------------|


  Am                                                   
  E  E  S E.  E  S S Q       E  E  S E.  E  S S E  E   
--------------------------|---------------------------|
-----5----6---3----5-L----|-----5----3----------------|
-----5----7---4----5-L----|-----5----4---4----2-L--0--|
--------------------------|--------------5----2-L-----|
--0-----0--------0--------|--0-----0--------0---------|
--------------------------|---------------------------|


                               F    C       C    G         
  E  E  S E.  E  S S E  E      E.   S  Q    E.   S  Q      
---------------------------|-------(8)-L--------(3)-L----||
-----5----6---3----5-L-----|--10----8--L----5----3--L----||
-----5----7---4----5-L-----|--10----9--L----5----4--L----||
---------------------------|--10---10--L----5----5--L----||
--0-----0--------0------0--|---8---10--L----3----5--L----||
---------------------------|--------8--L---------3--L----||










Lead Guitar:



     W                   W                   W                   H         
E||-------------------|-------------------|-------------------|-----------|
B||-------------------|-------------------|-------------------|-----------|
G||-------------------|-------------------|-------------------|-----------|
D||-------------------|-------------------|-------------------|-----------|
A||-------------------|-------------------|-------------------|-----------|
E||-------------------|-------------------|-------------------|-----------|


  W                   W                   W                   W                 
-------------------|-------------------|-------------------|-------------------|
-------------------|-------------------|-------------------|-------------------|
-------------------|-------------------|-------------------|-------------------|
-------------------|-------------------|-------------------|-------------------|
-------------------|-------------------|-------------------|-------------------|
-------------------|-------------------|-------------------|-------------------|


  W                   W                   W                   W                 
-------------------|-------------------|-------------------|-------------------|
-------------------|-------------------|-------------------|-------------------|
-------------------|-------------------|-------------------|-------------------|
-------------------|-------------------|-------------------|-------------------|
-------------------|-------------------|-------------------|-------------------|
-------------------|-------------------|-------------------|-------------------|


  W                   W                     W                 
-------------------|-------------------||--------------------|
-------------------|-------------------||--------------------|
-------------------|-------------------||*-------------------|
-------------------|-------------------||*-------------------|
-------------------|-------------------||--------------------|
-------------------|-------------------||--------------------|


  W                   W                   W                   W                 
-------------------|-------------------|-------------------|-------------------|
-------------------|-------------------|-------------------|-------------------|
-------------------|-------------------|-------------------|-------------------|
-------------------|-------------------|-------------------|-------------------|
-------------------|-------------------|-------------------|-------------------|
-------------------|-------------------|-------------------|-------------------|


  W                   W                   W                   W                 
-------------------|-------------------|-------------------|-------------------|
-------------------|-------------------|-------------------|-------------------|
-------------------|-------------------|-------------------|-------------------|
-------------------|-------------------|-------------------|-------------------|
-------------------|-------------------|-------------------|-------------------|
-------------------|-------------------|-------------------|-------------------|


  W                   W                   W                   W                 
-------------------|-------------------|-------------------|-------------------|
-------------------|-------------------|-------------------|-------------------|
-------------------|-------------------|-------------------|-------------------|
-------------------|-------------------|-------------------|-------------------|
-------------------|-------------------|-------------------|-------------------|
-------------------|-------------------|-------------------|-------------------|


  W                   W                   W                   W                 
-------------------|-------------------|-------------------|-------------------|
-------------------|-------------------|-------------------|-------------------|
-------------------|-------------------|-------------------|-------------------|
-------------------|-------------------|-------------------|-------------------|
-------------------|-------------------|-------------------|-------------------|
-------------------|-------------------|-------------------|-------------------|


  W                   W                   W                   W                 
-------------------|-------------------|-------------------|-------------------|
-------------------|-------------------|-------------------|-------------------|
-------------------|-------------------|-------------------|-------------------|
-------------------|-------------------|-------------------|-------------------|
-------------------|-------------------|-------------------|-------------------|
-------------------|-------------------|-------------------|-------------------|


  W                   W                     W                 
-------------------|--------------------||-------------------|
-------------------|--------------------||-------------------|
-------------------|-------------------*||-------------------|
-------------------|-------------------*||-------------------|
-------------------|--------------------||-------------------|
-------------------|--------------------||-------------------|


  W                   W                   W                   W                 
-------------------|-------------------|-------------------|-------------------|
-------------------|-------------------|-------------------|-------------------|
-------------------|-------------------|-------------------|-------------------|
-------------------|-------------------|-------------------|-------------------|
-------------------|-------------------|-------------------|-------------------|
-------------------|-------------------|-------------------|-------------------|


  W                   W                   W                   W                 
-------------------|-------------------|-------------------|-------------------|
-------------------|-------------------|-------------------|-------------------|
-------------------|-------------------|-------------------|-------------------|
-------------------|-------------------|-------------------|-------------------|
-------------------|-------------------|-------------------|-------------------|
-------------------|-------------------|-------------------|-------------------|


  H           W                   W                   W                 
-----------|-------------------|-------------------|-------------------|
-----------|-------------------|-------------------|-------------------|
-----------|-------------------|-------------------|-------------------|
-----------|-------------------|-------------------|-------------------|
-----------|-------------------|-------------------|-------------------|
-----------|-------------------|-------------------|-------------------|


  W                   W                   W                   W                 
-------------------|-------------------|-------------------|-------------------|
-------------------|-------------------|-------------------|-------------------|
-------------------|-------------------|-------------------|-------------------|
-------------------|-------------------|-------------------|-------------------|
-------------------|-------------------|-------------------|-------------------|
-------------------|-------------------|-------------------|-------------------|


  W                   Q    Q    H           Q    Q    H         
-------------------|---------------------|---------------------|
-------------------|-------3----5--------|------------5--------|
-------------------|--5----4----5--------|--5----7-------------|
-------------------|--7------------------|---------------------|
-------------------|---------------------|---------------------|
-------------------|---------------------|---------------------|


  W                   W                   W                   W                 
-------------------|-------------------|-------------------|-------------------|
-------------------|-------------------|-------------------|-------------------|
-------------------|-------------------|-------------------|-------------------|
-------------------|-------------------|-------------------|-------------------|
-------------------|-------------------|-------------------|-------------------|
-------------------|-------------------|-------------------|-------------------|


                                               |---3---|            
  E   E   H.              E   E  S  S   S   S  S   S   S  E   Q     
-----------------------|--0--20--L-19h-20p-19-17h-20p-17-16\--L----|
-----20b--L------------|-------------------------------------------|
-----------------------|-------------------------------------------|
-----------------------|-------------------------------------------|
-----------------------|-------------------------------------------|
-----------------------|-------------------------------------------|


  |--3--|  |--3--|  |--3--|                
  E  E  E  E  E  E  E  E  E  T  T  T T E   
-----8--8--7--5-----5---------------------|
-----------------8-----8--6--5h-6p-5---5--|
-------------------------------------7----|
------------------------------------------|
------------------------------------------|
------------------------------------------|


  |--3--|  |--6-| |--6--| |-6-| |-6-|              |---3---|              
  E  E  E  S  S S S  S  S S S S S S S Q       Q    E   E   E  Q    Q      
-------------------------------------------|-----------------------------|
-------------------------------------------|-----------------------------|
--7--5-----5p-4---4h-5p-4-2----------------|--5----4h--5p--4-------5b----|
--------7-------7-----------5-3-2-3-4-5----|------------------7----------|
-------------------------------------------|-----------------------------|
-------------------------------------------|-----------------------------|


  Q.     E  S  S  E  Q         Q    Q    Q    Q     
--------------------------|------------------------|
--------------------------|------------------------|
--L------5--4h-5p-4--L----|--4g5--------------5----|
--------------------------|---------7----7---------|
--------------------------|------------------------|
--------------------------|------------------------|


      T      T      T      T      T      T      T      
      |-3-|  |-6-|  |-6-|  |-6-|  |-6-|  |-6-|  |-6-|  
  E   S S S  S S S  S S S  S S S  S S S  S S S  S S S  
------------------------------------------------------|
------------------------------------------------------|
--0--16-4-0-16-4-0-16-4-0-17-5-0-17-5-0-17-5-0-17-5-0-|
------------------------------------------------------|
------------------------------------------------------|
------------------------------------------------------|


   T       T       T       T       T       T             
   |--6-|  |--6-|  |--6-|  |--6-|  |--6-|  |--6-|        
   S S  S  S S  S  S S  S  S S  S  S S  S  S S  S  Q     
--------------------------------------------------------|
--------------------------------------------------------|
--19-7p-0-19-7p-0-19-7p-0-19-7p-0-17-7p-0-16-7p-0-12----|
--------------------------------------------------------|
--------------------------------------------------------|
--------------------------------------------------------|


   Q     Q    H           W                   W                   H         
-----------------------|-------------------|-------------------|-----------|
-----------------------|-------------------|-------------------|-----------|
-----------------------|-------------------|-------------------|-----------|
--14\------------------|-------------------|-------------------|-----------|
--12\------------------|-------------------|-------------------|-----------|
-----------------------|-------------------|-------------------|-----------|


  W                   W                   W                   W                 
-------------------|-------------------|-------------------|-------------------|
-------------------|-------------------|-------------------|-------------------|
-------------------|-------------------|-------------------|-------------------|
-------------------|-------------------|-------------------|-------------------|
-------------------|-------------------|-------------------|-------------------|
-------------------|-------------------|-------------------|-------------------|


  W                   W                    Q    E.  S Q    S S S S  
-------------------|-------------------|---------------------------|
-------------------|-------------------|---------------------------|
-------------------|-------------------|---------------------------|
-------------------|-------------------|--------------5----4-5-7-4-|
-------------------|-------------------|--/4----L---7--------------|
-------------------|-------------------|---------------------------|


                                        |--6--| |--6--| |----5----| |--3--|     
  E.  S S  S  S S H           S  S  S S S  S  S S  S  S S S  S  S S S  S  S E   
---------------------------|---------------------------------------------------|
---------------------------|--5h-6p-5---5h-6p-5--------------------------------|
---------------------------|----------8---------7p-3h-4---4h-5p-4--------------|
--5---7-4h-6h-7-7-L--------|----------------------------7---------5-5p-3p-2-5--|
---------------------------|---------------------------------------------------|
---------------------------|---------------------------------------------------|


  E  E  S S  S S H           W                   W                 
--------------------------|-------------------|-------------------|
--------------------------|-------------------|-------------------|
-----5--2-4p-2---2--------|-------------------|-------------------|
--L------------4----------|-------------------|-------------------|
--------------------------|-------------------|-------------------|
--------------------------|-------------------|-------------------|


  W                   W                   W                   W                 
-------------------|-------------------|-------------------|-------------------|
-------------------|-------------------|-------------------|-------------------|
-------------------|-------------------|-------------------|-------------------|
-------------------|-------------------|-------------------|-------------------|
-------------------|-------------------|-------------------|-------------------|
-------------------|-------------------|-------------------|-------------------|


                       |--6--| |--6-|  
  Q    S S S S S S S S S  S  S S S  S  
--------------------------------------|
--------------------------------------|
-------------------2---2h-3p-2--------|
---------------3-5---5---------5-3p-2-|
--3----L-2-3-5------------------------|
--------------------------------------|


                         |--3--|          
  E  T T T T S S S S S S S  S  S S S S S  
-----------------------------------------|
---------------------4---3h-4p-3---------|
-------2-3-2---2-3-5---5---------5-3-5---|
--3--5-------5-------------------------5-|
-----------------------------------------|
-----------------------------------------|


                      |--3--|                 
  S T  T  T T S E  E  E  E  E  T  T  T T S S  
---------------------------------------------|
---------------------------------------------|
----0h-2h-3--------------4--2--4h-5p-4---5-6-|
--3---------3-1----2--5----------------7-----|
----------------4----------------------------|
---------------------------------------------|


  |--3--|                            |-6-| |-6-| |-3-|                
  E  E  E  E.  S E  S  S S S S  S    S S S S S S S S S E  Q    E  E   
--------5-------------------------|----------------------------------|
-----6-----8---7-L--6p-5---5-6p-5-|----------------------------------|
--7----------------------7--------|--------------------4--4----4--4--|
----------------------------------|--------------3-5-7---------------|
----------------------------------|--------3-5-7---------------------|
----------------------------------|--3-5-7---------------------------|


                         |---3---|                                     
  E   S   S  E   E   E   S   S   S  E  E      E  E  E  E  E  E  E  E   
--0--12h-13-12-------------------------0--|------0-----0-----0-----0--|
----------------15--13--12h-13p-12--------|--10-----8-----6-----3-----|
-----------------------------------14-----|---------------------------|
------------------------------------------|---------------------------|
------------------------------------------|---------------------------|
------------------------------------------|---------------------------|


     |--3--|          |--3--|                                    
  E  S  S  S E  E  E  S  S  S E  E     H         E   E  E   E    
------------------------------------|---------------10--8--(7)--|
--5--5h-6p-5----5-------------------|--8b--------L--------------|
-------------7-----5--4h-5p-4----4--|---------------------------|
------------------------------7-----|---------------------------|
------------------------------------|---------------------------|
------------------------------------|---------------------------|


  W                   W                   W                   W                 
-------------------|-------------------|-------------------|-------------------|
-------------------|-------------------|-------------------|-------------------|
-------------------|-------------------|-------------------|-------------------|
-------------------|-------------------|-------------------|-------------------|
-------------------|-------------------|-------------------|-------------------|
-------------------|-------------------|-------------------|-------------------|


  W                   W                   W                   W                 
-------------------|-------------------|-------------------|-------------------|
-------------------|-------------------|-------------------|-------------------|
-------------------|-------------------|-------------------|-------------------|
-------------------|-------------------|-------------------|-------------------|
-------------------|-------------------|-------------------|-------------------|
-------------------|-------------------|-------------------|-------------------|


  W                   W                   W                   W                 
-------------------|-------------------|-------------------|-------------------|
-------------------|-------------------|-------------------|-------------------|
-------------------|-------------------|-------------------|-------------------|
-------------------|-------------------|-------------------|-------------------|
-------------------|-------------------|-------------------|-------------------|
-------------------|-------------------|-------------------|-------------------|


  W                   W                   W                   W                 
-------------------|-------------------|-------------------|-------------------|
-------------------|-------------------|-------------------|-------------------|
-------------------|-------------------|-------------------|-------------------|
-------------------|-------------------|-------------------|-------------------|
-------------------|-------------------|-------------------|-------------------|
-------------------|-------------------|-------------------|-------------------|


  W                   W                   W                   W                 
-------------------|-------------------|-------------------|-------------------|
-------------------|-------------------|-------------------|-------------------|
-------------------|-------------------|-------------------|-------------------|
-------------------|-------------------|-------------------|-------------------|
-------------------|-------------------|-------------------|-------------------|
-------------------|-------------------|-------------------|-------------------|


  W                   W                   W                 
-------------------|-------------------|-------------------|
-------------------|-------------------|-------------------|
-------------------|-------------------|-------------------|
-------------------|-------------------|-------------------|
-------------------|-------------------|-------------------|
-------------------|-------------------|-------------------|


  E  E   H.              E.  E.   E  H            E.  E.  E  E.  S  Q     
----------------------|------------------------|-------------------------|
--5-------------------|--5---5h---6--5~--------|--5-------5--6---6b-L----|
-----7b--L------------|------------------------|------7------------------|
----------------------|------------------------|-------------------------|
----------------------|------------------------|-------------------------|
----------------------|------------------------|-------------------------|


              |--3-|                                     
  E  S S S S  S  S S E  Q.        Q.      E  Q.      E   
--5----------------------------|------------------------|
-----8-6---5h-6p-5-------------|--6~------3--5~------5--|
---------7---------7-5--4------|------------------------|
-------------------------------|------------------------|
-------------------------------|------------------------|
-------------------------------|------------------------|


  Q     Q     Q     S  E.      Q.       E   S   S   S  S  S  S   S  S  
---------------------------|-----------12--12h-13p-12----12-15p-12-15-|
-------------12~----L-13---|--15b---------------------15--------------|
--7S----9------------------|------------------------------------------|
---------------------------|------------------------------------------|
---------------------------|------------------------------------------|
---------------------------|------------------------------------------|


   |---3---|         |------5------|  |------5------|  |------5-----|   
   S   S   S  S   S  S  S   S   S  S  S   S  S  S   S  S   S  S  S  S   
--12h-12h-12-15p-12----12h-13p-12-------------------------------------||
--------------------15------------15-13p-11----13p-12-----------------||
--------------------------------------------12--------14p-12----12----||
-------------------------------------------------------------14----14-||
----------------------------------------------------------------------||
----------------------------------------------------------------------||





Duration Legend
---------------
W - whole
H - half
Q - quarter
E - 8th
S - 16th
T - 32nd
X - 64th
. - note dotted
|-n-|  - n-tuplets


Tablature Legend
----------------
L - tied note
x - dead note
g - grace note
(n) - ghost note
> - accentuded note
NH - natural harmonic
AH - artificial harmonic
TH - tapped harmonic
SH - semi harmonic
PH - pitch harmonic
h - hammer on
p - pull off
b - bend
br - bendRelease
pb - preBend
pbr - preBendRelease
brb - bendReleaseBend
\n/ - tremolo bar dip
\n - tremolo bar dive
-/n - tremolo bar Release up
/n\ - tremolo bar inverted dip
/n - tremolo bar return
-\n - tremolo bar Release down
S - shift slide
s - legato slide
/ -  slide into from below or out of upwards
\ -  slide into from above or out of downwards
~ - vibrato
W - wide vibrato
tr - trill
TP - tremolo picking
T - tapping
S - slap
P - pop
< - fade in
^ - brush up
v - brush down
Добавлено: 21.06.2013
Другие материалы по этой песне:

Страница создана 16.04.2012
http://primanota.ru/deep-purple/dead-or-alive-chords.htm
Привет, Гость.
Предлагаем пройти революционный курс по гитаре.
Подарок от PrimaNota.Ru, забирай!