PrimaNota.ru - самый крупный в мире бесплатный архив песенных текстов, аккордов, табулатур и нот


Deep Purple - Contact Lost - таба, видео

Регистрация Запомнить меня
Войти через:  Facebook Google Twitter Vk Yandex Mail.ru

Deep Purple - Contact Lost - таба, видео

Печатать
Просмотров: 437
Авторы музыки: Steve Morse

Key:
 ---------------------------------------------
| p     = pull off                            |
| h     = hammer on                           |
| b     = bend                                |
| xby   = bend up from x to y                 |
| yrx   = release bend from y to x            |
| /     = slide up                            |
| \     = slide down                          |
| x/y   = slide up from x to y                |
| y\x   = slide down from y to x              |  
| x\\   = slide down to the end of fret board |
| ~     = vibrato                             |
| Pm... = palm mute                           |
| ()    = notes in brackets aren't necessary  |
| v     = down-stroke                         |
| ^     = up-stroke                           |
| x*    = hold note                           |
| xby*  = hold bend                           |
 ---------------------------------------------
             
                   CONTACT LOST – Deep Purple
E |-----------------------------------------------------------------|
B |-----10-12p10-12b13*~-r12-10-12b13r12----------10*---------------|
G |--9------------------------------------12--9---------------------|
D |-----------------------------------------------------------------|
A |-----------------------------------------------------------------|
E |-----------------------------------------------------------------|

E |-----------------------------------------------------------------|
B |----10-12b13~-r12-10-12b13r12-12-9-12-12b14r12b14----------------|
G |--9--------------------------------------------------------------|
D |-----------------------------------------------------------------|
A |-----------------------------------------------------------------|
E |-----------------------------------------------------------------|

E |-----------------------------------------------------------------|
B |------------------------------------10/11--10-8h10p8-12b13-------|
G |--8-9-9/11----8-11-12b14-12b14-11-9------------------------------|
D |-----------------------------------------------------------------|
A |-----------------------------------------------------------------|
E |-----------------------------------------------------------------|

E |-----8-10-10h11--10-8----8-10-10/12*--9-10-12-13---15-12---12----|
B |----------------------12--------------------------------13-------|
G |--12-------------------------------------------------------------|
D |-----------------------------------------------------------------|
A |-----------------------------------------------------------------|
E |-----------------------------------------------------------------|

E |--17\\\--17-19-20--17-19--15-17-13h15p13-12--------------------------|
B |--------------------------------------------13-12--------------------|
G |--------------------------------------------------12h15p12-10--------|
D |--------------------------------------------------------------12-10--|
A |---------------------------------------------------------------------|
E |---------------------------------------------------------------------|

E |-------------------------|
B |------------------3------|
G |-----------------2-------|
D |----------------4--------|
A |--12--15--10---5---------|
E |-------------------------|

E |--17-19-20--17-19--15-17-13h15p13-12------------------------------------|
B |-------------------------------------13-12------------------------------|
G |--------------------------------------------12-10-----------------------|
D |---------------------------------------------------12-10----------------|
A |----------------------------------------------------------12--15--10-/12|
E |------------------------------------------------------------------------|
Добавлено: 30.09.2013
Другие материалы по этой песне:

Страница создана 20.04.2012
http://primanota.ru/deep-purple/contact-lost-chords.htm
Привет, Гость.
Предлагаем пройти революционный курс по гитаре.
Подарок от PrimaNota.Ru, забирай!