PrimaNota.ru - самый крупный в мире бесплатный архив песенных текстов, аккордов, табулатур и нот


Deep Insight - Dream On - аккорды и текст, видео

Регистрация Запомнить меня
Войти через:  Facebook Google Twitter Vk Yandex Mail.ru

Deep Insight - Dream On - аккорды и текст, видео

Печатать
Просмотров: 109
Dream On
Deep Insight
DEEP INSIGHT - DREAM ON
-----------------------
(from the album: "One minute too late")

words and music by:  Deep Insight, http://www.myspace.com/deepinsight
tabbed by:           Jakob D. Siegler, http://www.myspace.com/jakobsiegler

Chords:

   Abm  Abm(add11)  E   F#  Badd9  C#m
e|--4-------4-------0---2-----2-------4---||
B|--4-------4-------0---2-----2-------5---||
G|--4-------6-------1---3-----4-------6---||
D|--6-------6-------2---4-----4-------6---||
A|--6-------6-------2---4-----2-------4---||
E|--4-------4-------0---2-----X-------X---||




VERSE 1:

Abm        Abm
Walk away, find your day, 
               Abm(add11)  Abm   Abm(add11)  Abm
you've got to  dream       on.
Abm             Abm
Take no sings, stand your crowd,
               Abm(add11)  Abm   Abm(add11)  Abm
you've got to  dream       on.
 E                        E
Heal your heart broken, close your eyes for a while 
     Abm(add11)  Abm                Abm(add11)  Abm
and  dream       on.  You've got to  dream       on.
 E                              E
Look up to the sky in silence. Make sometime.
               Abm(add11)  Abm                 Abm(add11)  Abm
You've got to  dream       on.  You've got to  dream       on.



CHORUS:

Abm                   E                     Abm
   A girl without a smile, a foe without a name
          F#                           Abm
lost in place where the sun is always down.
	        E                       Badd9
Blessing in disguise, tell them it's alright.
                F#                                   (Abm)
You need a new dawn. You've got to face the facts in time



VERSE 2:

Abm         Abm
   Hold on to the last straw.
            Abm(add11)  Abm   Abm(add11)  Abm
No time to  dream       on.
Abm         Abm
Holding on, days push on.
            Abm(add11)  Abm   Abm(add11)  Abm
No time to  dream       on.
 E                              E
Lost your voice from shouting. Hold your pose.
            Abm(add11)  Abm   Abm(add11)  Abm
No time to  dream       on,   dream       on.
  E                                    E
Stop the clocks and face the silence. Make some time.
               Abm(add11)  Abm                Abm(add11)  Abm
You've got to  dream       on. You've got to  dream       on.




CHORUS:

Abm                   E                     Abm
   A girl without a smile, a foe without a name
          F#                           Abm
lost in place where the sun is always down.
	        E                       B
Blessing in disguise, tell them it's alright.
                F#                                   (C#m)
You need a new dawn. You've got to face the facts in time



BRIDGE:

C#m        Badd9      F#                    E
    Never       wanted     more than I could handle.
C#m        Badd9      F#                    E
    Never                  more than I could handle.


SOLO (Clean Guitar):

   Abm                             Abm/E
e|-------------------------------|-------------------------------|
B|-12\11/12--11------------------|-12\11/12--11------------------|
G|--------------13----------11---|-------------------------------|
D|-----------------13------------|---------------13--------------|
A|-------------------------------|-------------------------------|
E|-------------------------------|-------------------------------|

   Abm                                   F#
e|-------------------------------------|------------------------------|
B|-12\11/12--11------------------------|------------------------12----|
G|--------------13------(10/)11--------|------------------11h13----13-|
D|-----------------13----------13-11-9-|-11-------9-11/13-------------|
A|-------------------------------------|------------------------------|
E|-------------------------------------|------------------------------|

   Abm                                   Abm/E
e|-------------------------------------|------------------------------|
B|-14----12-14/16--16------------14----|-14---16----------19(b/21\)p16|
G|----------------------------------16-|-----------16-----------------|
D|-------------------------------------|------------------------------|
A|-------------------------------------|------------------------------|
E|-------------------------------------|------------------------------|

   B                                                     
e|---------------18-(18h)19(p18)------------------------|
B|-19(b/21)---21-----------------21-19-21---------------|
G|----------------------------------------(18h)20-18----|
D|---------------------------------------------------21-|
A|------------------------------------------------------|
E|------------------------------------------------------|

   F#                           Abm                          
e|------------------------------------------------------|
B|------------------------------------------------------|
G|-18-------18-20-(b/22\)-------------------------------|
D|-------21-----------------21--20-20-------------------|
A|------------------------------------------------------|
E|------------------------------------------------------|



SOLO (Strings):

Abm, E, Abm, F#,
Abm, E, B, F#



CHORUS:

Abm                   E                     Abm
   A girl without a smile, a foe without a name
          F#                           Abm
lost in place where the sun is always down.
	        E                       B
Blessing in disguise, tell them it's alright.
                F#                                   Abm
You need a new dawn. You've got to face the facts in time



Allright, that's it!
Please send me your corrections if there are any mistakes (Mail: Jes54Vers10[at]web.de).
Visit my MySpace: http://www.myspace.com/jakobsiegler
Rock on! J.

OFFICIAL WEBSITE OF DEEP INSIGHT: http://www.deepinsight.net/ 
Добавлено: 16.05.2012
Другие материалы по этой песне:
  • Аккорды и текст

Страница создана 16.05.2012
http://primanota.ru/deep-insight/dream-on-chords.htm
Привет, Гость.
Предлагаем пройти революционный курс по гитаре.
Подарок от PrimaNota.Ru, забирай!