PrimaNota.ru - самый крупный в мире бесплатный архив песенных текстов, аккордов, табулатур и нот


Deeds Of Flesh - Three Minute Crawlspace - текст песни, таба, видео

Регистрация Запомнить меня
Войти через:  Facebook Google Twitter Vk Yandex Mail.ru

Deeds Of Flesh - Three Minute Crawlspace - текст песни, таба, видео

Печатать
Просмотров: 134
                          --- DEEDS OF FLESH --- 
                          "Three Minute Crawlspace" 
                     From album: "Gradualy Melted" 
                     Transcribed by: ben chaffins

                            TABULATURE LEGEND: 
                   " - tremolo             h - hammer on            
                   ~ - vibrato             \ - slide down 
                   p - pull off            / - slide down 
                  tr - tremolo picking     ^ - pinch harmonics      
                   = - sustained note      b - bend string          
                p.m. - palm muting         t - tapping 

Tuning is D [D, G, C, F, A, D] 

[Intro] 
|-----------------------------|------------------| 
|-----------------------------|------------------| 
|-----------------------------|------------------| 
|---4-------------4-----------|------------------| 
|-3-2-2-3-7-6-5-3-2-2-3-7-6-5-|------------------| 
|-1---0-1-5-4-3-1---0-1-5-4-3-|------------------| 
| . . . . . . . . . . . . . . |                  | 
|-----------------------------|------------------| 
|-----------------------------|------------------| 
|-----------------------------|---2-2------------| 
|-----------------------------|-1-----0-1-5-4-3--| 

[Riff 1 (x2)] 
||------------------------------|-----------------------------------|- 
||o-----------------------------|-----------------------------------|- 
||------------------------------|-----------------------------------|- 
||----4-------------4-----------|---------4-------------4-----------|- 
||o-3-2-2-3-7-6-5-3-2-2-3-7-6-5-|-7-6-5-3-2-2-3-7-6-5-3-2-2-3-7-6-5-|- 
||--1---0-1-5-4-3-1---0-1-5-4-3-|-5-4-3-1---0-1-5-4-3-1---0-1-5-4-3-|- 
    . . . . . . . . . . . . . .   . . . . . . . . . . . . . . . . . 

-|--------------------------|| 
-|-------------------------o|| 
-|--------------------------|| 
-|--------------------------|| 
-|-7-6-5-7-6-5-7-6-5-7-6-5-o|| 
-|-5-4-3-5-4-3-5-4-3-5-4-3--|| 
   . . . . . . . . . . . . 

[Riff 2a] 
|-----------------------------------------|- 
|-----------------------------------------|- 
|-----------------------------------------|- 
|-----------------------------------------|- 
|---------------2h3p2----------4h5p4------|- 
|-0-0-0-0-2h3p2-------00000000-------1111-|- 
| . . . .                                 | 
|-----------------------------------------|- 
|-----------------------------------------|- 
|-----------------------------------------|- 
|-----------------------------------------|- 
|------------------------------4h5p4------|- 
|-0-0-0-0-------------00000000-------1111-|- 
  . . . . 

-|---------------------------------------| 
-|---------------------------------------| 
-|---------------------------------------| 
-|---------------------------------------| 
-|----------------2h3p2--------------3p2-| 
-|-00000000-2h3p2-------00000000-0-1-----| 
 |                               . .     | 
-|---------------------------------------| 
-|---------------------------------------| 
-|---------------------------------------| 
-|---------------------------------------| 
-|----------------2h3p2--------------3p2-| 
-|-00000000-2h3p2-------00000000-0-1-----| 
                                 . . 

[Riff 2b]  
|---------------------|--------------------|- 
|---------------------|--------------------|- 
|---------------------|--------------------|- 
|---------------------|--------------------|- 
|---------------2h3p2-|---------4h5p4------|- 
|-0-0-0-0-2h3p2-------|-0-0-0-0-------1111-|- 
  . . . .               . . . . 

-|---------------------|----------------------------------| 
-|---------------------|----------------------------------| 
-|---------------------|----------------------------------| 
-|---------------------|----------------------------------| 
-|---------------2h3p2-|-------------5p4---------44443333-| 
-|-0-0-0-0-2h3p2-------|-0-0-0-0-0-3-----00001111---------| 
   . . . .               . . . . . . 

[Riff 3 (x2)] 
||--------------------------------------|-------------------------|- 
||o-------------------------------------|-------------------------|- 
||--------------------------------------|-------------------------|- 
||--------------------------------------|-------------------------|- 
||o-------6"-5"-------4"-3"-------6"-5"-|-7-6-5-7-6-5-7-6-5-7-6-5-|- 
||--0"-3"-------0"-1"-------0"-3"-------|-5-4-3-5-4-3-5-4-3-5-4-3-|- 
                                          . . . . . . . . . . . . 

-|--------------------------------|-------------------------|- 
-|--------------------------------|-------------------------|- 
-|--------------------------------|-------------------------|- 
-|--------------------------3"...-|-------------------------|- 
-|-7-6-5-7-6-5--------2"...-------|-7-6-5-7-6-5-3-4-5-4~----|- 
-|-5-4-3-5-4-3-1"2"3"-------------|-5-4-3-5-4-3-1-2-3----3~-|- 
   . . . . . .                      . . . . . . . . . 

-|--------------------------|| 
-|-------------------------o|| 
-|--------------------------|| 
-|--------------------------|| 
-|-7-6-5-7-6-5-7-6-5-7-6-5-o|| 
-|-5-4-3-5-4-3-5-4-3-5-4-3--|| 
   . . . . . . . . . . . . 

[Riff 4 (x2)] 
||-----------------------------------|- 
||o----------------------------------|- 
||-----------------------------------|- 
||-----------------------------------|- 
||o-------------7"-6"----------3"-2"-|- 
||--0"-7"-6"-0"-------0"-5"-4"-------|- 

-|---------------------------------|------------------------------|| 
-|---------------------------------|-----------------------------o|| 
-|---------------------------------|------------------------------|| 
-|---------------------------------|------------------------------|| 
-|---------------------7h8p7-6h7p6-|-----------------3h4p3-2h3p2-o|| 
-|-0-0-7h8p7-6h7p6-0-0-------------|-0-0-5h6p5-4h5p4--------------|| 
   . .             . .               . .  

[Bass outro] 
|----------------------------------------------------------| 
|----------------------------------------------------------| 
|----------------------------------------------------------| 
|-2======================================================--| 
|-2=======================================================-| 
|-0=======================================================-| 
|                                                          | 
|----------------------------------------------------------| 
|----------------------------------------------------------| 
|-------------------7h8p7-6h7p6----------------3h4p3-2h3p2-| 
|-0--7h8hp-6h7p6-0--------------0--7h8p7-6h7p6-------------| 

[Riff 5 (x2) 
||--------------------------------|----------------------------------------|| 
||o-------------------------------|---------------------------------------o|| 
||--------------------------------|----------------------------------------|| 
||-----2--1-----2--1--------------|-2--------------2~-1~-----------3-3-2---|| 
||o-2--2--1--2--2--1--2--5--4--3--|-2-----2~-1~------------5-5-4-4-3-3-2--o|| 
||--0--------0--------0--5--4--3--|----0--------0-------0--5-5-4-4---------|| 
    .        .        .  .  .  .       .        .       .  . . . . . . 

[Outro] 
|--------------------------------|---------------------------------------| 
|--------------------------------|---------------------------------------| 
|--------------------------------|---------------------------------------| 
|-------------------------4------|---------------------------------------| 
|-------------------------2--4-5-|-------3-------5-------3-4-3-5-4-6-5-4-| 
|-000---------------------2--2-3-|-000-1---000-3---000-1---2-1-3-2-4-3-2-| 
| ...                            | ... . . ... . . ... . . . . . . . . . 
|-[bass solo]--------------------| 
|--------------------------------| 
|-------3-------5-------3--------| 
|-000-1---000-3---000-1----------| 

[Riff 6] 
|--------------------------------|---------------------------------------| 
|--------------------------------|---------------------------------------| 
|--------------------------------|---------------------------------------| 
|-------------------------4------|---------------------------------------| 
|-------3-------5-------3-2--4-5-|-------3-------5-------3-4-3-5-4-6-5-4-| 
|-000-1---000-3---000-1---2--2-3-|-000-1---000-3---000-1---2-1-3-2-4-3-2-| 
  ... . . ... . . ... . .          ... . . ... . . ... . . . . . . . . . 

[RIFF 3 (x2)] [RIFF 2a] [RIFF 2b] 

[Riff 7 (x2)] 
||--------------------------------------------|- 
||o-------------------------------------------|- 
||--------------------------------------------|- 
||-----------------7"-------------------------|- 
||o----7"-8"----7"-------7"-8"-------------2~-|- 
||--5"-------5"-------5"-------000-000-000----|- 
                               ... ... ... 

-|--------------------[x2]-|-----------------|| 
-|-------------------------|----------------o|| 
-|-------------------------|-----------------|| 
-|-----------------3-------|-----------------|| 
-|-----6-----4---4---4---4-|---2-----7-6-5--o|| 
-|-3-7---0-5---5-------5---|-0---3-1-5-4-3---|| 
   . . . . . . . . . . . .   . . . . . . 

[INTRO] [RIFF 1 (x2)] 

END OF SONG 
Добавлено: 06.05.2012
Другие материалы по этой песне:
  • Аккорды и текст

Страница создана 06.05.2012
http://primanota.ru/deeds-of-flesh/three-minute-crawlspace-chords.htm
Привет, Гость.
Предлагаем пройти революционный курс по гитаре.
Подарок от PrimaNota.Ru, забирай!