PrimaNota.ru - самый крупный в мире бесплатный архив песенных текстов, аккордов, табулатур и нот


Deeds Of Flesh - The Endurance - текст песни, таба, видео

Регистрация Запомнить меня
Войти через:  Facebook Google Twitter Vk Yandex Mail.ru

Deeds Of Flesh - The Endurance - текст песни, таба, видео

Печатать
Просмотров: 97
Deeds Of Flesh - 'The Endurance'
Reduced To Ashes (2003)
Unique Leader Records



________________________________________________________________________________
Tuning D G C F A D


 Riff 1 (0:00)
   Gtr. 1&2
||---------------------------------------------------------------|
||-------------------------------------------------------------*-| * End Here
||---------------------------------------------------------------|
||---------------------------------------------------------------|   3rd Time
||-6--4--5--3--4--2--5-4-3-4-5-4--6--4--5--3--4--2---------------|
||-3--1--2--0--1--1--3-2-1-2-3-2--3--1--2--0--1--1--111122221111-|

 Riff 1 (Cont.)
   Gtr. 1&2                      3x
 |---------------------------------||
 |--------------------------------.||
 |---------------------------------||
 |--------------------------------.||
 |-8\7-7\6-6\5-5\4-6\5-5\4-4\3-3\2-||
 |-8\7-7\6-6\5-5\4-6\5-5\4-4\3-3\2-||





 Riff 2 (0:28)
   Gtr. 1&2
||-------------------------------------------------------------------------|
||-----------------------------------------------------------------------*-|
||-------------------------------------------------------------------------|
||-5555-------------------------------------5555---------------------------|
||---------22222222-3-3-3-3-3-3~3-3-3-3-3-3---------22222222-3-3-3-3~--3\2-|
||-----3333---------4-4-4-4-4-4~4-4-4-4-4-4-----3333---------4-4-4-4~--4\3-|
                                                         *End Here 2nd Time
 Riff 2 (Cont.)
   Gtr. 1&2                                                             2x
 |-------------------------------------------------------------------------||
 |------------------------------------------------------------------------.||
 |-------------------------------------------------------------------------||
 |------------------------------------------------------------------------.||
 |-55552222---------3-3-3-3-3-3~3-3-3-3-3-3-55552222---------3-3-3-3~--3\2-||
 |---------33333333-4-4-4-4-4-4~4-4-4-4-4-4---------33333333-4-4-4-4~--4\3-||





 Riff 3 (0:49)
   Gtr. 1
||--------------------------------------------------------------------------|
||--------------------------------------------------------------------------|
||--------------------------------------------------------------------------|
||-------------555-----------------555-----------------555-----3344---------|
||-4-5-2-3-4-5-----5-6-4-5-2-3-4-5-----55664-5-2-3-4-5-----5566----4433-3/2-|
||-2-3-0-1-2-3---------2-3-0-1-2-3---------2-3-0-1-2-3------------------4/3-|
||                                                                          |
|| Gtr. 2                                                                   |
||--------------------------------------------------------------------------|
||--------------------------------------------------------------------------|
||--------------------------------------------------------------------------|
||-----------------------------------------------------555-----7788---------|
||-4-5-----------------4-5-----------------4-5-------------8899----8877-3/2-|
||-2-3-----------------2-3-----------------2-3--------------------------4/3-|

 Riff 3 (Cont.)
   Gtr. 1
 |----------------------------------------------------------------------|
 |----------------------------------------------------------------------|
 |----------------------------------------------------------------------|
 |-------------555-----------------555-----------------555-----3344-----|
 |-4-5-2-3-4-5-----5-6-4-5-2-3-4-5-----55664-5-2-3-4-5-----5566----4433-|
 |-2-3-0-1-2-3---------2-3-0-1-2-3---------2-3-0-1-2-3------------------|
 |                                                                      |
 | Gtr. 2                                                               |
 |----------------------------------------------------------------------|
 |----------------------------------------------------------------------|
 |----------------------------------------------------------------------|
 |-------------555-----------------555-----------------555-----7788-----|
 |-4-5-2-3-4-5-----5-6-4-5-2-3-4-5-----55664-5-2-3-4-5-----8899----8877-|
 |-2-3-0-1-2-3---------2-3-0-1-2-3---------2-3-0-1-2-3------------------|


 Riff 3 (Cont.)
   Gtr. 1
 |------------------------------------------------------------------------|
 |------------------------------------------------------------------------|
 |------------------------------------------------------------------------|
 |----------------------------555-----------------555-----------------555-|
 |-6-7-5-6-4-5-3~-4-5-2-3-4-5-----5-6-4-5-2-3-4-5-----55664-5-2-3-4-5-----|
 |-4-5-3-4-2-3-1~-2-3-0-1-2-3---------2-3-0-1-2-3---------2-3-0-1-2-3-----|
 |                                                                        |
 | Gtr. 2                                                                 |
 |------------------------------------------------------------------------|
 |------------------------------------------------------------------------|
 |------------------------------------------------------------------------|
 |----------------------------555-----------------555-----------------555-|
 |-6-5-8-7-5-6-3~-4-5-2-3-4-5-----5-6-4-5-2-3-4-5-----55664-5-2-3-4-5-----|
 |-4-3-6-5-3-4-1~-2-3-0-1-2-3---------2-3-0-1-2-3---------2-3-0-1-2-3-----|

 Riff 3 (Cont.)
   Gtr. 1
 |-----------------------------||
 |-----------------------------||
 |-----------------------------||
 |-----3344--------------------||
 |-5566----4433-6-7-5-6-4-5-3~-||
 |--------------4-5-3-4-2-3-1~-||
 |                             ||
 | Gtr. 2                      ||
 |-----------------------------||
 |-----------------------------||
 |-----------------------------||
 |-----7788--------------------||
 |-8899----8877-6-5-8-7-5-6-3~-||
 |--------------4-3-6-5-3-4-1~-||





 Riff 2 1x (1:16)





 Riff 4 (1:29)
   Gtr. 1                                      2x
||-----------------------------------------------|
||----------------------------------------------.| * Move To Next Line
||-----------------------------------------------|
||-----------------------------------------*----.|   2nd Time
||-2-5-4-5~-5-4-5-6-4-7\6-2-5-4-6~-5-4-5-6-7-7\6-|
||-0-3-2-3~-3-2-3-4-5-5\4-0-3-2-3~-3-2-3-4-5-5\4-|

 Riff 4 (Cont.)
   Gtr. 1&2
 |----------------------------|----------------------------------------------|
 |----------------------------|----------------------------------------------|
 |----------------------------|----------------------------------------------|
 |----------------------------|----------------------------------8\7---------|
 |-7-7\6-6-6\5-5-5\4-2-5-3-ah-|-5-4-5-6-7-5\4-2-5-4-ah-5-4-5-6-7-8\7-2-5-4-ah|
 |-5-5\4-4-4\3-3-3\2-0-3-2-7~-|-3-2-3-4-5-6\5-0-3-2-7~-3-2-3-4-5-----0-3-2-7~|

 Riff 4 (Cont.)
   Gtr. 1
 |--------------------------------------------------||
 |--------------------------------------------------||
 |--------------------------------------------------||
 |--------------------------------------------------||
 |-5-4-5-6-7-5\4-2-5-4-ah-5-4-5-6-7-7\6-6-6\5-5-5\4-||
 |-3-2-3-4-5-6\5-0-3-2-7~-3-2-3-4-5-5\4-4-4\3-3-3\2-||
 |                                                  ||
 | Gtr. 2                                           ||
 |--------------------------------------------------||
 |--------------------------------------------------||
 |--------------------------------------------------||
 |----------------------------------7\6-6-6\5-5-5\4-||
 |-5-4-5-6-7-5\4-2-5-4-ah-5-4-5-6-7-5\4-4-4\3-3-3\2-||
 |-3-2-3-4-5-6\5-0-3-2-7~-3-2-3-4-5-----------------||





 Riff 5 (1:53)
   Gtr. 1
||-----------------------------|----------------------------------|
||-----------------------------|.---------------------------------|
||-----------------------------|----------------------------------|
||--------------------------7~-|.---------------------4-4-4-5-5-5-|
||-10101011111110-9-9-9-8-8-8~-|-8--8--8--8-10--9--8--2-2-2-3-3-3-|
||--7-7-7-8-8-8-7-6-6-6-5-5-5~-|-5--5--5--5--8--7--6--------------|
||                                                                |
|| Gtr. 2                                                         |
||-----------------------------|----------------------------------|
||-----------------------------|.---------------------------------|
||-----------------------------|-<2nd-Time-Play-What>-------------|
||--------------------------7~-|.---------------------4-4-4-5-5-5-|
||-10101011111110-9-9-9-8-8-8~-|------2-2-2-3-3-3-|
||--7-7-7-8-8-8-7-6-6-6-5-5-5~-|----------------------------------|

 Riff 5 (Cont.)
   Gtr. 1                                                                 2x
 |----------------------------------------------------------------------------|
 |---------------------------------------------------------------------------.|
 |----------------------------------------------------------------------------|
 |-7-7-7-6-6-6-8-8-8-8-8-8-8\------------------------------------------------.|
 |-5-5-5-4-4-4-5-5-5-5-5-5-5\--8--8--8--8-10--9--8--9-9-9101010-9-9-9-8-8-8-8~|
 |-----------------------------5--5--5--5--8--7--6--7-7-7-8-8-8-7-7-7-6-6-6-5~|
 |                                                                            |
 | Gtr. 2                                                                     |
 |----------------------------------------------------------------------------|
 |---------------------------------------------------------------------------.|
 |----------------------------------------------------------------------------|
 |-7-7-7-7-7-7-8-8-8-8-8-8-8\------------------------------------------------.|
 |-5-5-5-5-5-5-5-5-5-5-5-5-5\--8--8--8--8-10--9--8--9-9-9101010-9-9-9-8-8-8-8~|
 |-----------------------------5--5--5--5--8--7--6--7-7-7-8-8-8-7-7-7-6-6-6-5~|

 Riff 5 (Cont.)
   Gtr. 1
 |-------------------------------------------------------------||
 |-------------------------------------------------------------||
 |-------------------------------------------------------------||
 |----------------------4-4-4-5-5-5-7-7-7-6-6-6---8---8---8-8\-||
 |-8--8--8--8-10--9--8--2-2-2-3-3-3-5-5-5-4-4-4-5---5---5---5\-||
 |-5--5--5--5--8--7--6-----------------------------------------||
 |                                                             ||
 | Gtr. 2                                                      ||
 |-------------------------------------------------------------||
 |-------------------------------------------------------------||
 |-------------------------------------------------------------||
 |----------------------4-4-4-5-5-5-7-7-7-6-6-6---8---8---8-8\-||
 |-8--8--8--8-10--9--8--2-2-2-3-3-3-5-5-5-4-4-4-5---5---5---5\-||
 |-5--5--5--5--8--7--6-----------------------------------------||





 Riff 6 (2:16)
   Gtr. 1&2
||--------------------------------------------------------------------------|
||--------------------------------------------------------------------------|
||-------------44443333333333333333--------------------------------55556666-|
||-------66----------------------------6666----555577778888----8888---------|
||-444444--4444--------------------4444----7777------------7-7--------------|
||--------------------------------------------------------------------------|

 Riff 6 (Cont.)
   Gtr. 1&2                                                 2x
 |-------------------------------------------------------------||
 |------------------------------------------------------------.||
 |-------------44443333333333333333----------------------------||
 |-----6666----------------------------6666----33335555666655-.||
 |-4444----4444--------------------4444----3333----------------||
 |-------------------------------------------------------------||





 Riff 7 (2:34)
   Gtr. 1&2
||--------------------------------------------------------------------|
||--------------------------------------------------------------------|
||--------------------------------------------------------------------|
||--------6-------7-------6-7-5----------------------------------8--7-|
||-4444444-4444444-4444444--5-3-------4-------5---------5--4--7--6--5-|
||------------------------------3-3-3---3-3-3---3-3-5-3-3--2--5-------|

 Riff 7 (Cont.)
   Gtr. 1&2
 |---------------------------------||
 |---------------------------------||
 |---------------------------------||
 |---------------------------------||
 |-------4-----------------5-4-5-8-||
 |-3-3-3---3-3-5-3\2-2-2-2-3-2-3-6-||





 Riff 8 (2:41)
   Gtr. 1&2
||--------------------------------------------------------------------------|
||--------------------------------------------------------------------------|
||--------------------------------------------------------------------------|
||-------------33332222222222222222--------------------------------44445555-|
||-------55----------------------------5555----444466667777----7777---------|
||-333333--3333--------------------3333----6666------------6-6--------------|

 Riff 8 (Cont.)
   Gtr. 1&2                                                 2x
 |------------------------------------------------------------||
 |-----------------------------------------------------------.||
 |------------------------------------------------------------||
 |-------------33332222222222222222--------------------------.||
 |-----5555----------------------------5555----22224444555544-||
 |-3333----3333--------------------3333----2222---------------||





 Riff 9 (2:59)
   Gtr. 1&2
||------------------------------|---------------------------------------|
||------------------------------|.--------------------------------------|
||------------------------------|---------------------------------------|
||--------6-------7-------6-7-5-|.---------------------------------8--7-|
||-4444444-4444444-4444444--5-3-|-2-2-2-4-2-2-2-5-2-2-4-2-5--4--7--6--5-|
||------------------------------|-3-3-3---3-3-3---3-3-5-3-3--2--5-------|

 Riff 9 (Cont.)
   Gtr. 1&2                        2x
 |------------------------------------|---------------------------------------|
 |-----------------------------------.|.--------------------------------------|
 |------------------------------------|---------------------------------------|
 |-----------------------------------.|.------3-------4------------------8--7-|
 |-2-2-2-4-2-2-4-2\1-1-1-1-5--4--5--8-|-2-2-2-4-2-2-2-5-2-2-4-2-5--4--7--6--5-|
 |-3-3-3---3-3-5-3\2-2-2-2-3--2--3--6-|-3-3-3---3-3-3---3-3-5-3-3--2--5-------|

 Riff 9 (Cont.)
   Gtr. 1&2                         2x
 |------------------------------------||
 |-----------------------------------.||
 |------------------------------------||
 |-------3---------------------------.||
 |-2-2-2-4-2-2-4-2\1-1-1-1-5--4--5--8-||
 |-3-3-3---3-3-5-3\2-2-2-2-3--2--3--6-||





 Riff 10 (3:19)
   Gtr. 1&2
||----------------------------------------------------------------------|
||----------------------------------------------------------------------|
||----------------------------------------------------------------------|
||---------------------------------------------------------5-5-5-4-4-4--|
||-4-4-4-3~--4-4-4-2/3/4-4-4-4-3~--4-4-4-3/4~--7-7-7-6-6-5-3-3-3-2-2-2--|
||-5-5-5-4~--5-5-5-3/4/5-5-5-5-4~--5-5-5-4/5~--5-5-5-4-4-3--------------|

 Riff 10 (Cont.)
   Gtr. 1&2
 |-----------------------|-----------------------------------------------|
 |*End-Riff-Here-2nd-Time|-----------------------------------------------|
 |-----------------------|-----------------------------------------------|
 |-----------------*-----|-----------------------------------------------|
 |-7-7-7-6-6-6-5-6-5-6\4-|-4-3-2-3~--4-3-2-3~--4-3-2-3~--4-3-2-6/7-5-5-5-|
 |-5-5-5-4-4-4-3-4-3-3\1-|-5-4-3-4~--5-4-3-4~--5-4-3-4~--5-4-3-3/4-2-2-2-|

 Riff 10 (Cont.)
   Gtr. 1&2                                                             2x
 |------------------------------------------------------------------------||
 |-----------------------------------------------------------------------.||
 |------------------------------------------------------------------------||
 |-----------------------------------------------------------------------.||
 |-4-4-4-3-3-3-4-4-4-1-1-1-1-1-1-1-1-1--------------6-6-6-6-5-6-7-7-7-6\4-||
 |-1-1-1-0-0-0-1-1-1-2-2-2-2-2-2-2-2-2-5\-4/5-8~7~--4-4-4-4-3-4-4-4-4-3\1-||





 Riff 11 (3:41)
   Gtr. 1&2
||-----------------------||
||-----------------------||
||-*---------------------||
||-5~----------4~--------||
||-6~----5-4-2-1~--------||
||-3~\2--3-2-0-2~2~\1----||

   *Hold Chord While Sliding First Finger.





 Riff 12 (3:44)
   Gtr. 1
||-------------------------------------------------------------------------|
||.------------------------------------------------------------------------|
||-------------------------------------------------------------------------|
||.----5---4---------------------------------------------------------------|
||-3-4-3-3-2-4-4-3-3-3-4-6---------7---7---7---7---77554455664433-6---6----|
||-1-2---1---2-2-1-1-1-2-4-4-444-4--444-444-444-444----------------333-333-|
||                                                                         |
|| Gtr. 2                                                                  |
||-------------------------------------------------------------------------|
||.------------------------------------------------------------------------|
||-------------------------------------------------------------------------|
||.----5---4---------------------------------------------------------------|
||-3-4-3-3-2-4-4-3-3-3-4-6---------7---7---7---7---77554455664433-6---6----|
||-1-2---1---2-2-1-1-1-2-4-4-444-4--444-444-444-444----------------333-333-|

 Riff 12 (Cont.)
   Gtr. 1
 |----------|----------------------------------------------------------------|
 |----------|----------------------------------------------------------------|
 |----------|----------------------------------------------------------------|
 |----------|-----5---4------------------------------------------------------|
 |-6---6----|-3-4-3-3-2-4-4-3-3-3-4-5---------7---7---7---7---77554455664433-|
 |--333-333-|-1-2---1---2-2-1-1-1-2-4-4-444-4--444-444-444-444---------------|
 |                                                                           |
 | Gtr. 2                                                                    |
 |----------|----------------------------------------------------------------|
 |----------|----------------------------------------------------------------|
 |----------|----------------------------------------------------------------|
 |----------|-----5---4-----------------------6---6---6---6------------------|
 |-6---6----|-3-4-3-3-2-4-4-3-3-3-4-5----------333-333-333-33377554455664433-|
 |--333-333-|-1-2---1---2-2-1-1-1-2-4-4-444-4--------------------------------|

 Riff 12 (Cont.)
   Gtr. 1         2x
 |------------------|-------------------------------||
 |-----------------.|-------------------------------||
 |------------------|-------------------------------||
 |-----------------.|-----5---4---------------------||
 |-6---6---6---6----|-3-4-3-3-2-4-4-3-3-3-4-5-------||
 |--333-333-333-333-|-1-2---1---2-2-1-1-1-2-4-4-444-||
 |                                                  ||
 | Gtr. 2                                           ||
 |------------------|-------------------------------||
 |-----------------.|-------------------------------||
 |------------------|-------------------------------||
 |-5---5---5---5---.|-----5---4---------------------||
 |--222-222-222-222-|-3-4-3-3-2-4-4-3-3-3-4-5-------||
 |------------------|-1-2---1---2-2-1-1-1-2-4-4-444-||





 Riff 13 (4:21)
   Gtr. 1&2                                                   2x
||---------------------------------------------------------------||
||--------------------------------------------------------------.||
||---------------------------------------------------------------||
||---7---3-2---7---------------5-6---7---3-2---7----------------.||
||-5-5-5-----5-5-4-4-6-7-6-6-7-----5-5-5-----5-5-4-2-5-6-5-4\3\2-||
||-3---3-----3---2-----------------3---3-----3---2---------2\1\0-||





 Riff 14 (4:35)
   Gtr. 1&2
||-----------------------------------------------------------------------------|
||-----------------------------------------------------------------------------|
||-----------------------------------------------------------------------------|
||--------------------------------------8-7-6----------------------------------|
||-------556655-5-5-5-888888888888777777-----------556655-3~-------4~-------5~-|
||-333333-------3-3-3------------------------333333-------1~-1-3-2-2~-2-4-3-3~-|

 Riff 14 (Cont.)
   Gtr. 1&2
 |----------------------------------------------------------------------------||
 |----------------------------------------------------------------------------||
 |--------------------------------------8-------------------------------------||
 |----------------------------------------7-6---------------------------------||
 |-------556655-5-5-5-888888888888777777-------------------442222222222222222\||
 |-333333-------3-3-3------------------------33333355555566-------------------||





 Riff 15 (4:47)
   Gtr. 1&2                                                         2x
||--------------------------------------------|-----------------------||
||--------------------------------------------|.---------------------.||
||--------------------------------------------|-----------------------||
||-----------------------1~-------2~-------3~-|.3~-------4~-------5~-.||
||-3~-------4~-------5~--1~-------2~-------3~-|-1~-1-3-2-2~-2-4-3-3~--||
||-1~-1-3-2-2~-2-4-3-3~-----1-3-2----2-4-3----|-----------------------||





 Riff 16 (4:56)
   Gtr. 1&2
||-----------------------------------------------------------------------------|
||-----------------------------------------------------------------------------|
||-----------------------------------------------------------------------------|
||--------------------------------------8-7-6----------------------------------|
||-------556655-5-5-5-888888888888777777-----------556655-3~-------4~-------5~-|
||-333333-------3-3-3------------------------333333-------1~-1-3-2-2~-2-4-3-3~-|

 Riff 16 (Cont.)
   Gtr. 1&2
 |----------------------------------------------------------------------------||
 |----------------------------------------------------------------------------||
 |----------------------------------------------------------------------------||
 |--------------------------------------8-7-6---------------------------------||
 |-------556655-5-5-5-888888888888777777-------------------442222222222222222\||
 |-333333-------3-3-3------------------------33333355555566-------------------||
 |                                                                            ||
 | Gtr. 2                                                                     ||
 |----------------------------------------------------------------------------||
 |----------------------------------------------------------------------------||
 |--------------------------------------8-------------------------------------||
 |--------------------888888888888777777--7-6---------------------------------||
 |-------556655-5-5-5--------------------------------------442222222222222222\||
 |-333333-------3-3-3------------------------33333355555566-------------------||





 Riff 15 1x (5:08)





 Riff 17 (5:16)
   Gtr. 1&2
||----------------------------------------------------------------------------|
||----------------------------------------------------------------------------|
||---------------------------------------------------------4-----------4---ah-|
||------------------------------4/7---------3~---------------5-4-5-4-5---5-4~-|
||-4-7-3-6-3-6-44-7-3-6-3-6-----4/7-----5-4-3~-4-7-3-6-3-3--------------------|
||-2-5-1-4-1-4-22-5-1-4-1-4-333-----321-3-2----2-5-1-4-1-1--------------------|

 Riff 17
   Gtr. 1&2
 |-------------------|---------------------------------------------------------|
 |-------------------|---------------------------------------------------------|
 |-------------------|---------------------------------------------------------|
 |-4-5-----0-2-------|------------------------------4/7---------3~-------------|
 |-----334-----2-----|-4-7-3-6-3-6-44-7-3-6-3-6-----4/7-----5-4-3~-4-7-3-6-3-3-|
 |---------------3-1~|-2-5-1-4-1-4-22-5-1-4-1-4-333-----321-3-2----2-5-1-4-1-1-|

 Riff 17
   Gtr. 1&2
 |--------------------------------------------|--------------------------||
 |--------------------------------------------|--------------------------||
 |-4-----------4------------------------------|--------------------------||
 |---5-4-5-4-5---5-4h5p4h5-4-5-5---0----------|--------------------------||
 |-------------------------------3---2-3---4~-|-4-7-3-6-3-6-44-7-3-6-3-6-||
 |---------------------------------------1-2~-|-2-5-1-4-1-4-22-5-1-4-1-4-||



 Riff 18 (5:38)
   Gtr. 1&2                                             2x
||---------------------------------------------------------||
||--------------------------------------------------------.||
||---------------------------------------------------------||
||---4455--4----5\----------------------------------------.||
||-22----22-----5\----4-6~---4-6~---------------------6-7--||
||----------322----333-3--333-3---555-777-888-333-222-4-5--||





 Riff 19 (5:49)
   Gtr. 1&2
||---------------------------------------------------------------------|
||---------------------------------------------------------------------|
||-----------777777776666666666----------------------------------------|
||-------7788-----------------------------------------------------7788-|
||-----77-----------------------7-----4-5--3--3--2--5/6/7--7/8\777-----|
||-5555-------------------------5-0-0-2-3--1--1--2--3/4/5--------------|

 Riff 19 (Cont.)
   Gtr. 1&2
||------------------||
||------------------||
||-6666666655555555-||
||------------------||
||------------------||
||------------------||




 Riff 18 1x (5:57)





 Riff 19 1x (6:03)





 Riff 18 1x (6:11)





 Riff 20 (6:17)
   Gtr. 1&2
||----------------------------------------------------||
||----------------------------------------------------||
||----------------------------------------------------||
||---4455--4----5\----3-5~---3-5~---------------------||
||-22----22-----5\-222426~222426~---------------------||
||----------322----333-3--333-3---555-777-888-333-222-||





 Riff 21 (6:22)
   Gtr. 1&2
||---------------------------------------------------------------------------|
||--------------------------------------------------*End-Riff-Here-4th-Time*-|
||---------------------------------------------------------------------------|
||-5------------------------------------------------333333222222-----------*-|
||---8-7~\-------3-3-5-3-000000-2-2-2-2-223333555555-------------5-5-5-7-7-7-|
||-----7~\-0-000-1-1-3-1--------0-0-0-0--------------------------3-3-3-5-5-5-|

 Riff 21 (Cont.)
   Gtr. 1&2 4x
 |-----------||
 |----------.||
 |-----------||
 |----------.||
 |-3-3-3-2~--||
 |-1-1-1-0~--||





 Riff 22 (6:44)
   Gtr. 1&2                                      4x
||-----------|--------------------------------------||
||-----------|.--------*---------------------------.|| * End Here
||-----------|--------------------------------------||
||-4~--3~-3-3|.7~-10~-11~--------------------------.||   4th Time
||-1~--0~-0-0|-4~--7~--8~-2-3-5-6-5-3-3-5-3-ah-5-3--||
||-2~--1~----|-5~--8~--9~-0-1-3-4-3-1-1-3-1-3~-3-1--||





 Riff 23 (7:00)
   Gtr. 1                                         2x
||--------------------------------------------------|-------------------------|
||.------------------------------------------------.|-------------------------|
||--------------------------------------------------|-------------------------|
||.------------------------------------------------.|-------------------------|
||-------------------------------888888------999999-|-------------------------|
||-558855888888-58855444444-58855-------58855-------|-5-88-888888-8-54-444444-|
||                                                                            |
|| Gtr. 2                                                                     |
||--------------------------------------------------|-------------------------|
||.------------------------------------------------.|-------------------------|
||------------Play-Guitar-1-Second-Time-------------|-------------------------|
||.------------------------------------------------.|-------------------------|
||--------------------------------------------------|-4-77-777777-7-43-333333-|
||--------------------------------------------------|-------------------------|

 Riff 23 (Cont.)
   Gtr. 1
 |-------------------------------------------------------------------------|
 |-------------------------------------------------------------------------|
 |-------------------------------------------------------------------------|
 |-------------------------------------------------------------------------|
 |---------------88-888888---------------------------------------99-999999-|
 |-5-88-888888-5-----------5-88-888888-8-54-444444-5-88-888888-5-----------|
 |                                                                         |
 | Gtr. 2                                                                  |
 |-------------------------------------------------------------------------|
 |-------------------------------------------------------------------------|
 |-------------------------------------------------------------------------|
 |---------------77-777777---------------------------------------88-888888-|
 |-4-77-777777-4-----------4-77-777777-7-43-333333-4-77-777777-4-----------|
 |-------------------------------------------------------------------------|

 Riff 23 (Cont.)
   Gtr. 1&2                                       2x
 |--------------------------------------------------||
 |.------------------------------------------------.||
 |--------------------------------------------------||
 |.------------------------------------------------.||
 |-------------------------------888888------999999-||
 |-558855888888-58855444444-58855-------58855-------||





 Riff 24 (7:19)
   Gtr. 1
||-----------------------------------------------------------|
||-----------------------------------------------------------|
||-141414----------------------------------------------------|
||-------141414101010111111----------------------------------|
||-------------------------111111121212----------------------|
||--------------------------------------2-2-2-5-3-2-2-5-2-1~-|
||                                                           |
|| Gtr. 2                                                    |
||-----------------------------------------------------------|
||-----------------------------------------------------------|
||-141414----------------------------------------------------|
||-------141414101010111111----------------------------------|
||-------------------------111111121212----------------------|
||--------------------------------------2-2-2-5-3-2-2-5-2-1~-|

 Riff 24 (Cont.)
   Gtr. 1
 |---------------------------------------------------------------|
 |---------------------------------------------------------------|
 |--------------------------141414-------------------------------|
 |--------------------------------141414101010111111-------------|
 |-------------6-3---2~-3/--------------------------111111121212-|
 |-2-2-2-5-3-2-----5-2~-1/---------------------------------------|
 |                                                               |
 | Gtr. 2                                                        |
 |---------------------------------------------------------------|
 |---------------------------------------------------------------|
 |---------------------------------------------------------------|
 |--------------------------151515-------------------------------|
 |-------------6-3---2~-3/--------151515111111121212-------------|
 |-2-2-2-5-3-2-----5-2~-1/--------------------------121212131313-|

 Riff 24 (Cont.)
   Gtr. 1                                     2x
 |----------------------------------------------|----------------------|
 |---------------------------------------------.|----------------------|
 |----------------------------------------------|----------------------|
 |---------------------------------------------.|----------------------|
 |----------------------------------6-3---2~-3/-|----------------------|
 |-2-2-2-5-3-2-2-5-2-1~-2-2-2-5-3-2-----5-2~-1/-|-2-2-2-5-3-2-2-5-2-1~-|
 |                                              |                      |
 | Gtr. 2                                       |                      |
 |----------------------------------------------|----------------------|
 |---------------------------------------------.|----------------------|
 |----------------------------------------------|----------------------|
 |---------------------------------------------.|----------------------|
 |----------------------------------6-3---2~-3/-|----------------------|
 |-2-2-2-5-3-2-2-5-2-1~-2-2-2-5-3-2-----5-2~-1/-|-2-2-2-5-3-2-2-5-2-1~-|

 Riff 24 (Cont.)
   Gtr. 1
 |-------------------------||
 |------------------------.||
 |-------------------------||
 |------------------------.||
 |-------------6-3---2~-3/-||
 |-2-2-2-5-3-2-----5-2~-1/-||





 Riff 25 (7:47)
   Gtr. 1&2                                       2x
||--------------------------------------------------|-------------------------|
||.------------------------------------------------.|-------------------------|
||--------------------------------------------------|-------------------------|
||.------------------------------------------------.|-------------------------|
||-------------------------------888888------999999-|-------------------------|
||-558855888888-58855444444-58855-------58855-------|-5-88-888888-8-54-444444-|

 Riff 25 (Cont.)
   Gtr. 1&2
 |-------------------------------------------------------------------------||
 |-------------------------------------------------------------------------||
 |-------------------------------------------------------------------------||
 |-------------------------------------------------------------------------||
 |---------------88-888888---------------------------------------99-999999-||
 |-5-88-888888-5-----------5-88-888888-8-54-444444-5-88-888888-5-----------||





 Riff 26 (8:01)
   Gtr. 1&2
||---------------------------------------------------------------------------|
||---------------------------------------------------------------------------|
||---------------------------------------------------------------------------|
||-7-----------------7-----7-8-7-6-----------6-----6h7p6h7p6p7h6-------------|
||---8-5-7h8p7h8p7h8---8-5---------6-3-6-7-6---6-3---------------8-7---7-6---|
||-------------------------------------------------------------------5-----4-|

 Riff 26 (Cont.)
   Gtr. 1&2
 |-------------------------------------------------------------------|
 |-------------------------------------------------------------------|
 |----------------------------------------------5-6-5-4-5-4-3-4-3-2~-|
 |----------------------------------------------6-7-6-5-6-5-4-5-4-3~-|
 |-6-5---3-4-5-3-ah-2-4-5-112-2-4-5-22335533556----------------------|
 |-----3---------3~-0-2-3-----0-2-3----------------------------------|

 Riff 26 (Cont.)
   Gtr. 1&2            2x
 |-----------------------||
 |----------------------.||
 |-5-6-5-4-5-4-3-4-3-2~--||
 |-6-7-6-5-6-5-4-5-4-3~-.||
 |-----------------------||
 |-----------------------||





 Riff 27 (8:31)
   Gtr. 1&2
||-----------------------------------------------------------|
||-----------------------------------------------------------|
||-----------------------------------------------------------|
||-----------------------------------------------------------|
||-555555222222------4--4-5-4-4-555555222222------4--4-5-4-4-|
||-------------3~2~--2--2-3-2-2-------------3~2~--2--2-3-2-2-|

 Riff 27 (Cont.)
   Gtr. 1&2
 |-----------------------------------------------------------------------|
 |-----------------------------------------------------------------------|
 |-----------------------------------------------------------------------|
 |----------------------------------6--7-----8~-------99995555444455557~-|
 |-555555222222------4--4-5-4-4--4--------5-----5-6666-------------------|
 |-------------3~2~--2--2-3-2-2------------------------------------------|

 Riff 27 (Cont.)
   Gtr. 1&2
 |-----|------------------------------------------------------------------|
 |-----|------------------------------------------------------------------|
 |-----|------------------------------------------------------------------|
 |-----|-444444111111-----------------444444111111-----------------444444-|
 |-5-4-|-5555552222222~1~--4--4-5-4-4-5555552222222~1~--4--4-5-4-4-555555-|
 |-3-2-|-------------3~2~--2--2-3-2-2-------------3~2~--2--2-3-2-2--------|

 Riff 27 (Cont.)
   Gtr. 1&2
 |------------------------------------------------------------------------||
 |------------------------------------------------------------------------||
 |------------------------------------------------------------------------||
 |-111111---------------------6--7-----8~-------99995555444455557777~-----||
 |-222222-2~1~-4--4-5-4-4--4--------5-----5-6666----------------------5-4-||
 |--------3~2~-2--2-3-2-2---------------------------------------------3-2-||





 Riff 28 (8:53)
   Gtr. 1      *
||------------|-----------------------|-------------|------------------------|
||------------|-----------------------|-------------|------------------------|
||------------|-----------------------|-------------|------------------------|
||-2-445------|---5\4-4----4\3-3------|-2-445-------|-77---------7-----7-8-7-|
||-------2-335|-2-6\5-5--1-5\4-4-3-ah-|-------2-335-|----8-5-7-8---8-5-------|
||------------|-3--------2-------1-7~-|-------------|------------------------|
||                                                                           |
|| Gtr. 2      *                                     **                      |
||------------|-----------------------|-------------|------------------------|
||------------|-----------------------|-------------|------------------------|
||------------|-----------------------|-------------|-77---------7-----7-8-7-|
||-2-445------|---5\4-4----4\3-3------|-2-445-------|----8-5-7-8-------------|
||-------2-335|---6\5-5--1-5\4-4-3-ah-|-------2-335-|------------------------|
||------------|-3--------2-------1-7~-|-------------|------------------------|

 Riff 28 (Cont.)
   Gtr. 1
 |----------------------------------------------------------------------------|
 |----------------------------------------------------------------------------|
 |----------------------------------------------------------------------------|
 |-66---------6-----6-7-6-------------------77---------7-----7-8-7-66---------|
 |----7-4-6-7---7-4-------8-7---7-6---5-5-4----8-5-7-8---8-5----------7-4-6-7-|
 |----------------------------5-----4---3-2-----------------------------------|
 |                                                                            |
 | Gtr. 2                                                                     |
 |----------------------------------------------------------------------------|
 |----------------------------------------------------------------------------|
 |-66---------6-----6-7-6-----------------------------------------------------|
 |----7-4-6-7---7-4-------------------------77---------7-----7-8-7-66---------|
 |------------------------8-7---7-6---5-5-4----8-5-7-8---8-5----------7-4-6-7-|
 |----------------------------5-----4---3-2-----------------------------------|

 Riff 28 (Cont.)
   Gtr. 1
 |-----------------------------------------------------------------------------|
 |-----------------------------------------------------------------------------|
 |-----------------------------------------------------------------------------|
 |-6-----6-7-6-------------------77---------7-----7-8-7-66---------6-----6-7-6-|
 |---7-4-------8-7---7-6---5-5-4----8-5-7-8---8-5----------7-4-6-7---7-4-------|
 |-----------------5-----4---3-2-----------------------------------------------|
 |                                                                             |
 | Gtr. 2                                                                      |
 |-----------------------------------------------------------------------------|
 |-----------------------------------------------------------------------------|
 |-------------------------------77---------7-----7-8-7-66---------6-----6-7-6-|
 |-6-----6-7-6----------------------8-5-7-8---8-5----------7-4-6-7---7-4-------|
 |---7-4-------8-7---7-6---5-5-4-----------------------------------------------|
 |-----------------5-----4---3-2-----------------------------------------------|

 Riff 28 (Cont.)
   Gtr. 1&2
 |--------------------||
 |-------------------.||
 |--------------------||
 |-------------------.||
 |-8-7---7-6---5-5-4--||
 |-----5-----4---3-2--||

 * Play This Section Twice The Second Time You Play This Riff

 2nd Time Gtr. 1 Only From **




 Riff 29 (9:33)
   Gtr. 1&2
||----------------------------------------------------------------------|
||----------------------------------------------------------------------|
||----------------------------------------------------------------------|
||--------------------------------6~------6~--4~------4-4-4-2-2-2-2-2-2-|
||-------------5--------8\7-------7~------7~--5~------5-5-5-3-3-3-3-3-3-|
||-1-3-2-2-4-3-3-000000-6\5-000000--000000--00--000000------------------|

 Riff 29 (Cont.)
   Gtr. 1&2           3x
 |----------------------||
 |---------------------.||
 |----------------------||
 |---------------------.||
 |-0-2-1-1-3-2-3-3-3----||
 |-1-3-2-2-4-3-4-4-4-1~-||





 Riff 30 (9:55)
   Gtr. 1                                             2x
||------------------------------------------------------|
||-----------------------------------------------------.|
||------------------------------------------------------|
||-----------4-3------------------------4-3------------.|
||-----------2-1-3-4-5-4-5-6---------4--2-1-3-4-5-4-5-6-|
||-5~-5\4-4------1-2-3-2-3-4--5~-5/6--------1-2-3-2-3-4-|
||
|| Gtr. 2
||------------------------------------------------------|
||-----------------------------------------------------.|
||------------------------------------------------------|
||-----------4-3------------------------4-3------------.|
||-----------2-1-3-4-5-4-5-6---------4--2-1-3-4-5-4-5-6-|
||-5~-5\4-4------1-2-3-2-3-4--5~-5/6--------1-2-3-2-3-4-|

 Riff 30 (Cont.)
   Gtr. 1                                             2x
 |-------------------------------------------------------||
 |.-----------------------------------------------------.||
 |-------------------------------------------------------||
 |.----------4-3------------------------3-4-------------.||
 |-----------2-1-3-4-5-4-5-6---------4--2-1-3-4-5-4-5-6--||
 |-5~-5\4-4------1-2-3-2-3-4--5~-5/6--------1-2-3-2-3-4--||
 |                                                       ||
 | Gtr. 2                            *                   ||
 |-------------------------------------------------------||
 |.-----------------------------------------------------.||
 |-------------------------------------------------------||
 |.----------4-3---------------------4--3-4-------------.||
 |-5~-5\4-4--2-1-3-4-5-4-5-6--5~-5/6----2-1-3-4-5-4-5-6--||
 |---------------1-2-3-2-3-4----------------1-2-3-2-3-4--||

 *Finish Here 2nd Time



 Riff 31 (10:17)
   Gtr. 1&2
||----------------------------------------------------------------|
||----------------------------------------------------------------|
||----------------------------------------------------------------|
||----------------------------------------------------------------|
||-555555777777888888-------------------------------------5--6--3-|
||--------------------0~-333355666666-11111133331h3000000-3--4--3-|

 Riff 31 (Cont.)
   Gtr. 1&2                4x
 |---------------------------||
 |--------------------------.||
 |---------------------------||
 |--------------------------.||
 |--------------------3-3/4--||
 |-111111333333000000-1-1/2--||





 Riff 32 (10:45)
   Gtr. 1
||----------------------------------------------------------------|
||----------------------------------------------------------------|
||----------------------------------------------------------------|
||----------------------------------------------------------------|
||-555555777777888888-------------------------------------5--6--3-|
||--------------------0~-333355666666-11111133331h3000000-3--4--3-|
||                                                                |
|| Gtr. 2                                                         |
||----------------------------------------------------------------|
||----------------------------------------------------------------|
||----------------------------------------------------------------|
||-333333555555666666---------------------------------------------|
||--------------------------------------------------------5--6--5-|
||--------------------0~-333355666666-11111133331h3000000-3--4--3-|

 Riff 32 (Cont.)
   Gtr. 1                  6x
 |---------------------------|
 |--------------------------.|
 |---------------------------|
 |--------------------------.|
 |--------------------3-3/4--|
 |-111111333333000000-1-1/2--|
 |                           |
 | Gtr. 2               *    |
 |---------------------------|
 |---------------------------|
 |---------------------------|
 |---------------------------|
 |--------------------3-3/4--|
 |-111111333333000000-1-1/2--|

 * 6th Time With Delay Effect



 (11:31) "I'm not here to listen to a sermon.....a sermon.....a sermon"


End.
Добавлено: 18.11.2013
Другие материалы по этой песне:
  • Аккорды и текст

Страница создана 21.07.2012
http://primanota.ru/deeds-of-flesh/the-endurance-chords.htm
Привет, Гость.
Предлагаем пройти революционный курс по гитаре.
Подарок от PrimaNota.Ru, забирай!