PrimaNota.ru - самый крупный в мире бесплатный архив песенных текстов, аккордов, табулатур и нот


Deeds Of Flesh - Spewing Profligacy - текст песни, таба, видео

Регистрация Запомнить меня
Войти через:  Facebook Google Twitter Vk Yandex Mail.ru

Deeds Of Flesh - Spewing Profligacy - текст песни, таба, видео

Печатать
Просмотров: 121
Уроки эстрадного вокала в Санкт-Петербурге
                      --- DEEDS OF FLESH ---
                             "Spewing Profligacy"
                     From album: "Mark Of The Legion"
                     Transcribed by: ben chaffins


                            TABULATURE LEGEND:
                   " - tremolo             h - hammer on
                   ~ - vibrato             \ - slide down
                   p - pull off            / - slide down
                  tr - tremolo picking     ^ - pinch harmonics
                   = - sustained note      b - bend string
                p.m. - palm muting         t - tapping

Tuning is D [D, G, C, F, A, D]

[Riff 1a]
|-----------------------------------------|--------------------------|
|-----------------------------------------|--------------------------|
|-----------------------------------------|--------------------------|
|-----------------------------------------|--------------------------|
|-2-2-2-2-3\2-2-1-1--4"----8"-7"5"7".....-|-2-2-2-2-3\2-2-1-1--4"----|
|-0-0-0-0-1\0-0-1-1-----3"----------------|-0-0-0-0-1\0-0-1-1-----3"-|
| . . . .     . . .                       | . . . .     . . .
|-----------------------------------------|--------------------------|
|-----------------------------------------|--------------------------|
|-----------------------------------------|--------------------------|
|-----------------------------------------|--------------------------|
|-2-2-2-2-3\2-2-1-1--4"----8"-7"5"7".....-|-2-2-2-2-3\2-2-1-1--4"----|
|-0-0-0-0-1\0-0-1-1-----3"----------------|-0-0-0-0-1\0-0-1-1-----3"-|
  . . . .     . . .                         . . . .     . . .

----------------------------------|
----------------------------------|
----------------------------------|
-7"4"6"---------------------------|
--------5"-7"-8"-7"5"-7"----------|
-------------------------7"-8"-5"-|
                                  |
----------------------------------|
----------------------------------|
----------------------------------|
-7"4"6"---------------------------|
--------5"-7"-8"-7"5"-7"----------|
-------------------------7"-8"-5"-|

[Riff 1b]
|-----------------------------------------|--------------------------|
|-----------------------------------------|--------------------------|
|-----------------------------------------|--------------------------|
|--------------------------7"-6"4"6".....-|--------------------------|
|-2-2-2-2-3\2-2-1-1--4"-------------------|-2-2-2-2-3\2-2-1-1--4"----|
|-0-0-0-0-1\0-0-1-1-----3"----------------|-0-0-0-0-1\0-0-1-1-----3"-|
| . . . .     . . .                       | . . . .     . . .
|-----------------------------------------|--------------------------|
|-----------------------------------------|--------------------------|
|-----------------------------------------|--------------------------|
|-----------------------------------------|--------------------------|
|-2-2-2-2-3\2-2-1-1--4"----8"-7"5"7".....-|-2-2-2-2-3\2-2-1-1--4"----|
|-0-0-0-0-1\0-0-1-1-----3"----------------|-0-0-0-0-1\0-0-1-1-----3"-|
  . . . .     . . .                         . . . .     . . .

----------------------------------|
----------------------------------|
----------------------------------|
-7"4"6"---------------------------|
--------5"-7"-8"-7"5"-7"----------|
-------------------------7"-8"-5"-|
                                  |
----------------------------------|
----------------------------------|
----------------------------------|
-7"4"6"---------------------------|
--------5"-7"-8"-7"5"-7"----------|
-------------------------7"-8"-5"-|

[Riff 2 (x2)]
||------------------------------------|------------------------------------|
||o-----------------------------------|------------------------------------|
||------------------------------------|------------------------------------|
||------------------------------------|------------------------------------|
||o-2-2-2--4--5--8"-7"-------6"-5"----|-2-2-2--4--5--8--9--8--7--8--7--^---|
||--0-0-0--2--3--------5"...-------6"-|-0-0-0--2--3--5--6--5--4--5--4--3~--|
|   . . .  .  .                       | . . .  .  .  .  .  .  .  .  .     |
||------------------------------------|------------------------------------|
||o-----------------------------------|------------------------------------|
||------------------------------------|------------------------------------|
||------------------------------------|------------------------------------|
||o-2-2-2--4--5--8"-7"-------6"-5"----|-2-2-2--4--5--8--9--8--7--8--7--^---|
||--0-0-0--2--3--------5"...-------6"-|-0-0-0--2--3--5--6--5--4--5--4--3~--|
    . . .  .  .                         . . .  .  .  .  .  .  .  .  .

                                     __________________________________
                                    | ending 1.
-|---------------------------------|------------------------------------|
-|---------------------------------|------------------------------------|
-|---------------------------------|------------------------------------|
-|---------------------------------|--------------------------------^---|
-|-2-2-2--4--5--8"-7"-5"...-6655---|-2-2-2--4--5--5--6--5--4--5--4--4~--|
-|-0-0-0--2--3------------------66-|-0-0-0--2--3--5--6--5--4--5--4------|
 | . . .  .  .              ...... | . . .  .  .  .  .  .  .  .  .     |
-|---------------------------------|------------------------------------|
-|---------------------------------|------------------------------------|
-|---------------------------------|------------------------------------|
-|---------------------------------|------------------------------------|
-|-2-2-2--4--5--8"-7"-5"...-6655---|-2-2-2--4--5--5--6--5--4--5--4--^---|
-|-0-0-0--2--3------------------66-|-0-0-0--2--3--5--6--5--4--5--4--3~--|
   . . .  .  .              ......   . . .  .  .  .  .  .  .  .  .

-|-----------------------------------------||
-|----------------------------------------o||
-|-----------------------------------------||
-|------------------8--9--8--7--8--7-------||
-|-2-2-2--4----5----5--6--5--4--5--4------o||
-|-0-0-0--2----3----------------------6~---||
 | . . .  .    .    .  .  .  .  .  .  .     |
-|-----------------------------------------||
-|----------------------------------------o||
-|-----------------------------------------||
-|------------------8--9--8--7--8--7-------||
-|-2-2-2--4----5----5--6--5--4--5--4------o||
-|-0-0-0--2----3----------------------6~---||
   . . .  .    .    .  .  .  .  .  .

   _______________________________________
  | ending 2.
-|----------------------------------------|
-|----------------------------------------|
-|----------------------------------------|
-|------------------8--9--8--7--8--7------|
-|-2-2-2--4----5----5--6--5--4--5--4------|
-|-0-0-0--2----3----------------------6~--|
 | . . .  .    .    .  .  .  .  .  .      |
-|----------------------------------------|
-|----------------------------------------|
-|----------------------------------------|
-|------------------8--9--8--7--8--7------|
-|-2-2-2--4----5----5--6--5--4--5--4------|
-|-0-0-0--2----3----------------------6~--|
   . . .  .    .    .  .  .  .  .  .

[Riff 3a]
|-------------------------------------------|--------------------------------|
|-------------------------------------------|--------------------------------|
|-------------------------------------------|-----------6"-5"----------------|
|-------------5"...-------------5"-4"-8"-7"-|-----8"-7"-------2"-------------|
|-6-5-5-5-5-5-------6-5-5-5-5-5-------------|-6-5----------------5-4-4-4-4-4-|
|-4-3-3-3-3-3-------4-3-3-3-3-3-------------|-4-3----------------3-2-2-2-2-2-|
| . . . . . .       . . . . . .             | . .                . . . . . .
|-------------------------------------------|--------------------------------|
|-------------------------------------------|--------------------------------|
|-------------------------------------------|-----------6"-5"----------------|
|-------------5"...-------------5"-4"-8"-7"-|-----8"-7"-------2"-------------|
|-6-5-5-5-5-5-------6-5-5-5-5-5-------------|-6-5----------------5-4-4-4-4-4-|
|-4-3-3-3-3-3-------4-3-3-3-3-3-------------|-4-3----------------3-2-2-2-2-2-|
  . . . . . .       . . . . . .               . .                . . . . . .

-------------------------|--------------------------------------------|
-------------------------|--------------------------------------------|
-------------------------|--------------------------------------------|
-------------------------|-------------5"...-------------5"-4"-8"-7"--|
-------------5-5-4-4-----|-6-5-5-5-5-5-------6-5-5-5-5-5--------------|
-1-1-1-2-1-1---------3-3-|-4-3-3-3-3-3-------4-3-3-3-3-3--------------|
 . . . . . . . . . . . . | . . . . . .       . . . . . .             |
-------------------------|--------------------------------------------|
-------------------------|--------------------------------------------|
-------------------------|--------------------------------------------|
-------------------------|-------------5"...-------------5"-4"-8"-7"--|
-------------5-5-4-4-----|-6-5-5-5-5-5-------6-5-5-5-5-5--------------|
-1-1-1-2-1-1---------3-3-|-4-3-3-3-3-3-------4-3-3-3-3-3--------------|
 . . . . . . . . . . . .   . . . . . .       . . . . . .

-|--------------------------------------------------------|
-|--------------------------------------------------------|
-|-----------6"-5"----------------------------------------|
-|-----8"-7"-------2"-------------------------5-5---------|
-|-6-5----------------5-4-4-4-4-4-1-1-1-2-1-1-----4-4-3-3-|
-|-4-3----------------3-2-2-2-2-2-------------------------|
 | . .                . . . . . . . . . . . . . . . . . . |
-|--------------------------------------------------------|
-|--------------------------------------------------------|
-|-----------6"-5"----------------------------------------|
-|-----8"-7"-------2"-------------------------------------|
-|-6-5----------------5-4-4-4-4-4-1-1-1-2-1-1-5-5-4-4-----|
-|-4-3----------------3-2-2-2-2-2---------------------3-3-|
   . .                . . . . . . . . . . . . . . . . . .

[Riff 3b]
|-------------------------------------------|--------------------------------|
|-------------------------------------------|--------------------------------|
|-------------------------------------------|-----------6"-5"----------------|
|-------------5"-4"-------------5"-4"-8"-7"-|-----8"-7"-------2"-------------|
|-6-5-5-5-5-5-------6-5-5-5-5-5-------------|-6-5----------------5-4-4-4-4-4-|
|-4-3-3-3-3-3-------4-3-3-3-3-3-------------|-4-3----------------3-2-2-2-2-2-|
| . . . . . .       . . . . . .             | . .                . . . . . .
|-------------------------------------------|--------------------------------|
|-------------------------------------------|--------------------------------|
|-------------------------------------------|--------------------------------|
|-------------------------------------------|-----------6"-5"-2"-------------|
|-6-5-5-5-5-5-5"-4"-6-5-5-5-5-5-5"-4"-8"-7"-|-6-5-8"-7"----------5-4-4-4-4-4-|
|-4-3-3-3-3-3-------4-3-3-3-3-3-------------|-4-3----------------3-2-2-2-2-2-|
  . . . . . .       . . . . . .               . .                . . . . . .

-------------------------|--------------------------------------------|
-------------------------|--------------------------------------------|
-------------------------|--------------------------------------------|
-------------------------|-------------5"-4"-------------5"-4"-8"-7"--|
-------------5-5-4-4-----|-6-5-5-5-5-5-------6-5-5-5-5-5--------------|
-1-1-1-2-1-1---------3-3-|-4-3-3-3-3-3-------4-3-3-3-3-3--------------|
 . . . . . . . . . . . . | . . . . . .       . . . . . .             |
-------------------------|--------------------------------------------|
-------------------------|--------------------------------------------|
-------------------------|--------------------------------------------|
-------------------------|--------------------------------------------|
-------------5-5-4-4-----|-6-5-5-5-5-5-5"-4"-6-5-5-5-5-5-5"-4"-8"-7"--|
-1-1-1-2-1-1---------3-3-|-4-3-3-3-3-3-------4-3-3-3-3-3--------------|
 . . . . . . . . . . . .   . . . . . .       . . . . . .

-|--------------------------------------------------------|
-|--------------------------------------------------------|
-|-----------6"-5"----------------------------------------|
-|-----8"-7"-------2"-------------------------5-5---------|
-|-6-5----------------5-4-4-4-4-4-1-1-1-2-1-1-----4-4-3-3-|
-|-4-3----------------3-2-2-2-2-2-------------------------|
 | . .                . . . . . . . . . . . . . . . . . . |
-|--------------------------------------------------------|
-|--------------------------------------------------------|
-|--------------------------------------------------------|
-|-----------6"-5"-2"-------------------------------------|
-|-6-5-8"-7"----------5-4-4-4-4-4-1-1-1-2-1-1-5-5-4-4-----|
-|-4-3----------------3-2-2-2-2-2---------------------3-3-|
   . .                . . . . . . . . . . . . . . . . . .

[Riff 4 (x2)]
||-----------------------------------------|----------------------------------|
||o----------------------------------------|----------------------------------|
||-----------------------------------------|----------------------------------|
||-----------------------------------------|----------------------------------|
||o---------------222---222222222222-------|---------------222---555555555555-|
||--000000-3-4-444---000-------------2--1--|-000000-3-4-444---000-------------|
|   ...... . . .....................       | ...... . . .....................
||-----------------------------------------|----------------------------------|
||o----------------------------------------|----------------------------------|
||-----------------------------------------|----------------------------------|
||-----------------------------------------|----------------------------------|
||o---------------222----------------------|---------------222---555555555555-|
||--000000-3-4-444---000333333333333-2--1--|-000000-3-4-444---000-------------|
    ...... . . .....................         ...... . . ....................

-----------------------------|-----------------------------------------|
-----------------------------|-----------------------------------------|
-----------------------------|-----------------------------------------|
-----------------1-----1-2---|-----------------------------------------|
-1-----------2-3---2-3-----3-|---------------222---222222222222--------|
---2-3-2-3-2-----------------|-000000-3-4-444---000-------------2--1---|
 . . . . . . . . . . . . . . | ...... . . .....................       |
-----------------------------|-----------------------------------------|
-----------------------------|-----------------------------------------|
-----------------------------|-----------------------------------------|
-----------------1-----1-2---|-----------------------------------------|
-1-----------2-3---2-3-----3-|---------------222-----------------------|
---2-3-2-3-2-----------------|-000000-3-4-444---000333333333333-2--1---|
 . . . . . . . . . . . . . .   ...... . . .....................

-|---------------------------------------------------------------||
-|--------------------------------------------------------------o||
-|---------------------------------------------------------------||
-|--------------------------------------------------1-----1-2----||
-|---------------222---555555555555-1-----------2-3---2-3-----3-o||
-|-000000-3-4-444---000---------------2-3-2-3-2------------------||
 | ...... . . ..................... . . . . . . . . . . . . . .   |
-|---------------------------------------------------------------||
-|--------------------------------------------------------------o||
-|---------------------------------------------------------------||
-|--------------------------------------------------5-----5-6----||
-|---------------222---555555555555-5-----------7-6---6-7-----7-o||
-|-000000-3-4-444---000---------------6-7-6-7-6------------------||
   ...... . . ..................... . . . . . . . . . . . . . .

[RIFF 3b] [RIFF 1a] [RIFF 1b] [RIFF 4] [BREAK]

[Riff 5a (x2)]
||-------------------------------------------------------|
||o------------------------------------------------------|
||-------------------------------------------------------|
||-------------------------------------------------------|
||o-------444444-----44443333-------444444-----44445555--|
||--2-1-2--------222----------2-1-2--------222-----------|
|   . . . ...... ... ........ . . . ...... ... ........ |
||-------------------------------------------------------|
||o------------------------------------------------------|
||-------------------------------------------------------|
||-------------------------------------------------------|
||o-------444444-----44443333-------444444-----44445555--|
||--2-1-2--------222----------2-1-2--------222-----------|
    . . . ...... ... ........ . . . ...... ... ........

----------------------------------------------------------|
----------------------------------------------------------|
----------------------------------------------------------|
----------------------------------------------------------|
-------444444-----44443333-4-4-3-3-5-5-3-3-6-6-3-3-4-3-4--|
-2-1-2--------222----------2-2-1-1-3-3-1-1-4-4-1-1-2-1-2--|
 . . . ...... ... ........ . . . . . . . . . . . . . . . |
----------------------------------------------------------|
----------------------------------------------------------|
----------------------------------------------------------|
----------------------------------------------------------|
-------444444-----44443333-4-4-3-3-5-5-3-3-6-6-3-3-4-3-4--|
-2-1-2--------222----------2-2-1-1-3-3-1-1-4-4-1-1-2-1-2--|
 . . . ...... ... ........ . . . . . . . . . . . . . . .

-|------------------------------------------------------|
-|------------------------------------------------------|
-|------------------------------------------------------|
-|-------444444-----44443333-------444444-----44445555--|
-|------------------------------------------------------|
-|-2-1-2--------222----------2-1-2--------222-----------|
 | . . . ...... ... ........ . . . ...... ... ........ |
-|------------------------------------------------------|
-|------------------------------------------------------|
-|------------------------------------------------------|
-|------------------------------------------------------|
-|-------444444-----44443333-------444444-----44445555--|
-|-2-1-2--------222----------2-1-2--------222-----------|
   . . . ...... ... ........ . . . ...... ... ........

---------------------------|--------------------[x2]-|--||
---------------------------|-------------------------|-o||
---------------------------|-------------------------|--||
-------444444-----44443333-|-------------------------|--||
---------------------------|-4-4-3-3-5-5-3-3-6-6-3-3-|-o||
-2-1-2--------222----------|-2-2-1-1-3-3-1-1-4-4-1-1-|--||
 . . . ...... ... ........ | . . . . . . . . . . . . |   |
---------------------------|--------------------[x2]-|--||
---------------------------|-------------------------|-o||
---------------------------|-------------------------|--||
---------------------------|-------------------------|--||
-------444444-----44443333-|-4-4-3-3-5-5-3-3-6-6-3-3-|-o||
-2-1-2--------222----------|-2-2-1-1-3-3-1-1-4-4-1-1-|--||
 . . . ...... ... ........ . . . . . . . . . . . . .

[Outro]
|-------------------------|
|-------------------------|
|-------------------------|
|-------------------------|
|-4-4-3-3-5-5-3-3-6-6-3-3-|
|-2-2-1-1-3-3-1-1-4-4-1-1-|
| . . . . . . . . . . . . |
|-------------------------|
|-------------------------|
|-------------------------|
|-------------------------|
|-4-4-3-3-5-5-3-3-6-6-3-3-|
|-2-2-1-1-3-3-1-1-4-4-1-1-|
  . . . . . . . . . . . .

[RIFF 2 (x2) /ending 1, ending 2/] [RIFF 5 (x2)]

[Ending]
|-------------------------|----------*|
|-------------------------|----------*|
|-------------------------|----------*|
|-------------------------|----------*|
|-4-4-3-3-5-5-3-3-6-6-3-3-|-4-3-5----*|
|-2-2-1-1-3-3-1-1-4-4-1-1-|-2-1-3----*|
| . . . . . . . . . . . . | . . .     |
|-------------------------|----------*|
|-------------------------|----------*|
|-------------------------|----------*|
|-------------------------|----------*|
|-4-4-3-3-5-5-3-3-6-6-3-3-|-4-3-5----*|
|-2-2-1-1-3-3-1-1-4-4-1-1-|-2-1-3----*|
  . . . . . . . . . . . .   . . .

END OF SONG
Добавлено: 10.05.2012
Другие материалы по этой песне:

Страница создана 08.03.2012
http://primanota.ru/deeds-of-flesh/spewing-profligacy-chords.htm
Привет, Гость.
Предлагаем пройти революционный курс по гитаре.
Подарок от PrimaNota.Ru, забирай!