PrimaNota.ru - самый крупный в мире бесплатный архив песенных текстов, аккордов, табулатур и нот


Deeds Of Flesh - Reduced To Ashes - текст песни, таба, видео

Регистрация Запомнить меня
Войти через:  Facebook Google Twitter Vk Yandex Mail.ru

Deeds Of Flesh - Reduced To Ashes - текст песни, таба, видео

Печатать
Просмотров: 139
Уроки эстрадного вокала в Санкт-Петербурге
                                                --- DEEDS OF FLESH ---
                              "Reduced To Ashes"
                     From album: "Reduced To Ashes"
                     Version 2.2 (August'05)
                     Transcribed by: ben chaffins


                            TABULATURE LEGEND:
                   " - tremolo             h - hammer on
                   ~ - vibrato             \ - slide down
                   p - pull off            / - slide down
                  tr - tremolo picking     ^ - pinch harmonics
                   = - sustained note      b - bend string
                p.m. - palm muting         t - tapping

Tuning is D [D, G, C, F, A, D]

[Riff 1 (x2)]
||----------------------------|-[ending 1]--------------------------||
||o---------------------------|------------------------------------o||
||----------------------------|-------------------------------------||
||---------------------2"....-|--------------------2"1"...-6"-3"..--||
||o-2"------2"3"---2"3"-------|-2"------2"3"---2"3"----------------o||
||-----3"0"-----1"------------|----3"0"-----1"----------------------||
|                             |                                      |
||----------------------------|-[ending 1]--------------------------||
||o---------------------------|------------------------------------o||
||----------------------------|-------------------------------------||
||---------------------2"....-|--------------------2"1"...-6"-3"..--||
||o-2"------2"3"---2"3"-------|-2"------2"3"---2"3"----------------o||
||-----3"0"-----1"------------|----3"0"-----1"----------------------||

-[ending 2]--------------------------||
------------------------------------o||
-------------------------------------||
--------------------2"1"...-6"-3"..--||
-2"------2"3"---2"3"----------------o||
----3"0"-----1"----------------------||
                                      |
-[ending 2]--------------------------||
------------------------------------o||
----------------------------5"-2"..--||
--------------------2"1"...----------||
-2"------2"3"---2"3"----------------o||
----3"0"-----1"----------------------||

[RIFF 1 + ending 1]

[Outro]
|----------------------------------------|
|----------------------------------------|
|----------------------------------------|
|----------------------------------------|
|-3-6-5-6-6"-3-5-6-5----6-5----5-4-------|
|-3-6-5-4----3-5-6-5-6"-6-5-5"-5-4-3"-2"-|
| . . . .    . . . .    . .    . .       |
|----------------------------------------|
|----------------------------------------|
|----------------------------------------|
|----------------------------------------|
|-3-6-5-4----3-5-6-5----6-5----5-4-------|
|-3-6-5-4----3-5-6-5----6-5----5-4-------|
  . . . .    . . . .    . .    . .


[RIFF 1 + ending 1]
[RIFF 1 + ending 2]

[Riff 2 (x4)]
||------------------------------------------||
||o----------------------------------------o||
||------------------------------------------||
||------------------------------------------||
||o-3-6-5-4-6"-3-5-6-5----6-5----5-4-------o||
||--3-6-5-4----3-5-6-5-6"-6-5-5"-5-4-3"-2"--||
|   . . . .    . . . .    . .    . .         |
||------------------------------------------||
||o----------------------------------------o||
||------------------------------------------||
||------------------------------------------||
||o-3-6-5-4-6"-3-5-6-5-4"-6-5----5-4-------o||
||--3-6-5-4----3-5-6-5----6-5-5"-5-4-3"-2"--||
    . . . .    . . . .    . .    . .


[Riff 3a (x2)]
||-------------------------|-----------------------------------------------||
||o------------------------|----------------------------------------------o||
||-------------------------|-----------------------------------------------||
||-------------------------|-------------------6"5"--8"7"------------------||
||o-4"------4"--4"5"-------|-4"----4"5"7"5"4"..----4"----6"5"-4---4-------o||
||----3"...---3"----3"2"..-|---3"..-----------------------------2---2-1-2--||
                                                              . . . . . .
[Outro 2]
-|-------------|--------[x2]-|--------[x2]-|
-|-------------|-------------|-------------|
-|-------------|-------------|-------------|
-|-------------|-------------|-------------|
-|-4---4-------|-4---4-------|-4---4-------|
-|---2---2-1-2-|---2---2-1-2-|---2---2-1-2-|
 | . . . . . . | . . . . . . | . . . . . . |
-|-------------|--------[x2]-|--------[x2]-|
-|-------------|-------------|-------------|
-|-------------|-------------|-------------|
-|-------------|-7---7-------|-5---5-------|
-|-4---4-------|---5---5-4-5-|---3---3-2-3-|
-|---2---2-1-2-|-------------|-------------|
   . . . . . .   . . . . . .   . . . . . .

[RIFF 3a (x2)] [OUTRO 2]


[Riff 4 (x2)]
||--|----------------------[x3]-|-------------------|--||
||o-|---------------------------|-------------------|-o||
||--|---------------------------|-------------------|--||
||--|-------------------3-----2-|-------------------|--||
||o-|-2-----1-----0-1-2-3-0-1-2-|-0--1--2--3--2--1--|-o||
||--|-3-3-3-2-2-2-0-1-2---0-1---|-0--1--2--3--2--1--|--||
      . . . . . . . . .   . .     .  .  .  .  .  .

[Riff 5 (x2)]
||----------------------------|---------------------|-
||o---------------------------|---------------------|-
||-----------------------6"7"-|---------------------|-
||--88--8"...-88--9"-8"9"-----|----------------3"---|-
||o---------------------------|-4-6-2"1"-4-1-4"--1"-|-
||----6---------6-------------|-4-6-----------------|-
    ...       ...               . .      . .

-|-------------------------|-------------------------|-
-|-------------------------|-------------------------|-
-|-------------------------|-------------------------|-
-|-4-------------------1-3-|-2-----------------------|-
-|---2-4-5-5-4-2-4-1-3-----|-4-44-5----6-------------|-
-|-------------------------|------7-77-8-88-88889999-|-
   . . . . . . . . . . . . |   ..   ..   .. ........ |
-|-------------------------|-------------------------|-
-|-------------------------|-------------------------|-
-|-------------------------|-------------------------|-
-|-7-------------------4-7-|-2-----------------------|-
-|---5-7-8-8-7-5-7-4-6-----|-4-44-5----6-------------|-
-|-------------------------|------7-77-8-88-88889999-|-
   . . . . . . . . . . . .     ..   ..   .. ........

-|----------------------------------------|-------------------------|-
-|----------------------------------------|-------------------------|-
-|----------------------------------------|-------------------------|-
-|-2----1----2----4----2----1----33334444-|-2-----------------------|-
-|-4-44-3-33-4-44-6-66-4-44-3-33----------|-4-44-5----6-------------|-
-|----------------------------------------|------7-77-8-88-88889999-|-
 |   ..   ..   ..   ..   ..   .. ........ |   ..   ..   .. ........ |
-|----------------------------------------|-------------------------|-
-|----------------------------------------|-------------------------|-
-|----------------------------------------|-------------------------|-
-|-2----1----2----4----2----1----33334444-|-2-----------------------|-
-|-4-44-3-33-4-44-6-66-4-44-3-33----------|-4-44-5----6-------------|-
-|----------------------------------------|------7-77-8-88-88889999-|-
     ..   ..   ..   ..   ..   .. ........     ..   ..   .. ........

-|---------------------||
-|--------------------o||
-|---------------------||
-|---------------------||
-|-7"-6"-7"--9"-7"-6"-o||
-|-9"-8"-9"-11"-9"-8"--||
 |                      |
-|---------------------||
-|--------------------o||
-|---------------------||
-|---------------------||
-|-7"-6"-7"--9"-7"-6"-o||
-|-9"-8"-9"-11"-9"-8"--||


[Riff 6a]
-|--------------------------------[x2]-|
-|-------------------------------------|
-|-------------------------------------|
-|-----9"10"----9"10"----8"9"-----8"9"-|
-|-------------------------------------|
-|-7-7------7-7------6-6------6-6------|
   . .      . .      . .      . .

[ending 1]
-|-------------------------------|
-|-------------------------------|
-|-------------------------------|
-|-------------------------------|
-|-------------------------------|
-|-5-5-5-7-8-8-8-8-5-5-8-7-5-4-4-|
   . . . . . . . . . . . . . . .

RIFF 6a + ending 1
RIFF 6a + ending 1
RIFF 6a

[Riff 6b]
-|-------------------------------------|
-|-------------------------------------|
-|-------------------------------------|
-|-----8"9"-----8"9"-----7"8"-----7"8"-|
-|-------------------------------------|
-|-6-6------6-6------5-5------5-5------|
 | . .      . .      . .      . .      |
-|-------------------------------------|
-|-------------------------------------|
-|-------------------------------------|
-|-----5"6"-----5"6"-----4"5"-----4"5"-|
-|-------------------------------------|
-|-3-3------3-3------2-2------2-2------|
   . .      . .      . .      . .

[Outro 3]
-|-------------|-------------------------|-------------------------|
-|-------------|-------------------------|-------------------------|
-|-------------|-------------------------|-------------------------|
-|-------------|-4---4-------4---4-------|-5---5-------5---5-6-5---|
-|-5--4--8--7--|-4-2-4-5-2-1-4-2-4-5-2-1-|-5-3-5-6-3-2-5-3-5-6-5-3-|
-|-3--2--6--5--|---2---5-2-1---2---5-2-1-|---3---6-3-2---3-------3-|
 |             | . . . . . . . . . . . . | . . . . . . . . . . . . |
-|-------------|-------------------------|-------------------------|
-|-------------|-------------------------|-------------------------|
-|-------------|-------------------------|-------------------------|
-|-------------|-------------------------|-------------------------|
-|-5--4--8--7--|-------------------------|-------------------------|
-|-3--2--6--5--|-------------------------|-------------------------|

-|-------------------------|-------------------------|
-|-------------------------|-------------------------|
-|-------------------------|-------------------------|
-|-4---4-------4---4-------|-5---5-------5---5-6-5---|
-|-4-2-4-5-2-1-4-2-4-5-2-1-|-5-3-5-6-3-2-5-3-5-6-5-3-|
-|---2---5-2-1---2---5-2-1-|---3---6-3-2---3-------3-|
 | . . . . . . . . . . . . | . . . . . . . . . . . . |
-|-------------------------|-------------------------|
-|-------------------------|-------------------------|
-|-------------------------|-------------------------|
-|-4---4-------4---4-------|-5---5-------5---5-6-5---|
-|-4-2-4-5-2-1-4-2-4-5-2-1-|-5-3-5-6-3-2-5-3-5-6-5-3-|
-|---2---5-2-1---2---5-2-1-|---3---6-3-2---3-------3-|
   . . . . . . . . . . . .   . . . . . . . . . . . .

[Riff 7b]
-------------||----------------------------------------------[x2]-||
-------------||o-------------------------------------------------o||
-------------||---------------------------------------------------||
-------------||---------------------------------------------------||
-5--4--8--^--||o-4---4-------4---4-------5---5-------5---5-6-5---o||
-3--2--6--5~-||----2---5-2-1---2---5-2-1---3---6-3-2---3-------3--||
             |                                                     |
-------------||----------------------------------------------[x2]-||
-------------||o-------------------------------------------------o||
-------------||---------------------------------------------------||
-------------||---------------------------------------------------||
-5--4--8--^--||o-7---7-------7---7-------8---8-------8---8-9-8---o||
-3--2--6--5~-||----5---8-5-4---5---8-5-4---6---9-6-5---6-------6--||

[Riff 7a]
-------------||----------------------------------------------[x2]-||
-------------||o-------------------------------------------------o||
-------------||---------------------------------------------------||
-------------||--4---4-------4---4-------5---5-------5---5-6-5----||
-5--4--8--7--||o-4-2-4-5-2-1-4-2-4-5-2-1-5-3-5-6-3-2-5-3-5-6-5-3-o||
-3--2--6--5--||----2---5-2-1---2---5-2-1---3---6-3-2---3-------3--||
             |   . . . . . . . . . . . . . . . . . . . . . . . .   |
-------------||----------------------------------------------[x2]-||
-------------||o-------------------------------------------------o||
-------------||---------------------------------------------------||
-------------||--4---4-------4---4-------5---5-------5---5-6-5----||
-5--4--8--7--||o-4-2-4-5-2-1-4-2-4-5-2-1-5-3-5-6-3-2-5-3-5-6-5-3-o||
-3--2--6--5--||----2---5-2-1---2---5-2-1---3---6-3-2---3-------3--||
                 . . . . . . . . . . . . . . . . . . . . . . . .

[RIFF 1 + ending 1]
[RIFF 1 + ending 1]
[RIFF 2 (x4)]
[RIFF 6a (x2) + ending 1]
[RIFF 6a + ending 1]
[RIFF 6a + ending 1]
[RIFF 6a]
[RIFF 6b]
[RIFF 3a]

[Riff 3b]
|------------------------|----------------------------------------------|
|------------------------|----------------------------------------------|
|------------------------|----------------------------------------------|
|------------------------|-------------------6"5"--8"7"-----------------|
|-4"------4"--4"5"-------|-4"----4"5"7"5"4"..----4"----6"5"-4---4-------|
|---3"...---3"----3"2"..-|---3"..-----------------------------2---2-1-2-|
|                        |                                  . . . . . . |
|------------------------|----------------------------------------------|
|------------------------|----------------------------------------------|
|------------------------|----------------------------------------------|
|------------------------|-------------------6"5"--8"7"-----7---7-------|
|-4"------4"--4"5"-------|-4"----4"5"7"5"4"..----4"----6"5"---5---5-4-5-|
|---3"...---3"----3"2"..-|---3"..---------------------------------------|

[Outro 4]                                                   . . . . . .
-|-------------|--------[x2]-|--------[x2]-|
-|-------------|-------------|-------------|
-|-------------|-------------|-------------|
-|-------------|-------------|-------------|
-|-4---4-------|-4---4-------|-4---4-------|
-|---2---2-1-2-|---2---2-1-2-|---2---2-1-2-|
 | . . . . . . | . . . . . . | . . . . . . |
-|-------------|--------[x2]-|--------[x2]-|
-|-------------|-------------|-------------|
-|-------------|-------------|-------------|
-|-7---7-------|-5---5-------|-------------|
-|---5---5-4-5-|---3---3-2-3-|-4---4-------|
-|-------------|-------------|---2---2-1-2-|
   . . . . . .   . . . . . .   . . . . . .

[RIFF 7a]
[RIFF 7b]

[Ending]
|--------------|
|--------------|
|--------------|
|--------------|
|-5--4--8--7\--|
|-3--2--6--5\--|

END OF SONG
  
Добавлено: 28.03.2012
Другие материалы по этой песне:

Страница создана 28.03.2012
http://primanota.ru/deeds-of-flesh/reduced-to-ashes-chords.htm
Привет, Гость.
Предлагаем пройти революционный курс по гитаре.
Подарок от PrimaNota.Ru, забирай!