PrimaNota.ru - самый крупный в мире бесплатный архив песенных текстов, аккордов, табулатур и нот


Deeds Of Flesh - Medical Murder - таба, видео

Регистрация Запомнить меня
Войти через:  Facebook Google Twitter Vk Yandex Mail.ru

Deeds Of Flesh - Medical Murder - таба, видео

Печатать
Просмотров: 112
                            --- DEEDS OF FLESH ---
                               "Medical Murder"
                     From album: "Crown Of Souls"
                     Transcribed by: ben chaffins

                            TABULATURE LEGEND:
                   " - tremolo             h - hammer on
                   ~ - vibrato             \ - slide down
                   p - pull off            / - slide down
                  tr - tremolo picking     ^ - pinch harmonics
                   = - sustained note      b - bend string
                p.m. - palm muting         t - tapping

Tuning is D [D, G, C, F, A, D]

[Riff 1 (x3)]
||-----------------------------------------------|----------------------|
||o----------------------------------------------|----------------------|
||-----------------------------------------------|----------------------|
||-----------------------------------------------|----------------------|
||o-4--5--6--3"-6"-5"----6--5--4--6"-3"----5"...-|-4--5--6--3"-6"-5"----|
||--2--3--4-----------2"-4--3--2--------2"-------|-2--3--4-----------2"-|
    .  .  .              .  .  .                   .  .  .

-----------------------------------------------||
----------------------------------------------o||
-----------------------------------------------||
-----------------------------------------------||
-6--5--4--5"-2"----5"...----------------4"...-o||
-4--3--2--------3"-------3"-2"-3"-4"-1"--------||
 .  .  .

[Riff 2]
|-----------------------------------|-------------------------|
|-----------------------------------|-------------------------|
|-----------------------------------|-------------------------|
|-------------------------5-4-3-4-3-|-------------------------|
|-3-4-334-5-4-3-4-334-5-4-6-5-4-5-4-|-3-4-334-5-4-3-4-334-5-4-|
|-1-2-112-3-2-1-2-112-3-2-----------|-1-2-112-3-2-1-2-112-3-2-|
  . . ... . . . . ... . . . . . .     . . ... . . . . ... . .

-----------------|
-----------------|
-----------------|
-4-3-2-3-2-1-2-1-|
-5-4-3-4-3-2-3-2-|
-----------------|
 . . . . . . .

[RIFF 1 (x2)]

[Outro 1]
|-----------------------------------|-------------------------|
|-----------------------------------|-------------------------|
|-----------------------------------|-------------------------|
|-------------------------5-4-3-4-3-|-------------------------|
|-3-4-334-5-4-------------6-5-4-5-4-|-3-4-334-5-4-3-4-334-5-4-|
|-1-2-112-3-2-----------------------|-1-2-112-3-2-1-2-112-3-2-|
| . . ... . .             . . . .   | . . ... . . . . ... . .
|-[bass]----------------------------|
|-----------------------------------|
|-----------------------------------|
|-------------1-2-112-3-2-----------|

-----------------|
-----------------|
-----------------|
-4-3-2-3-2-1-2-1-|
-5-4-3-4-3-2-3-2-|
-----------------|
 . . . . . . .

[RIFF 2 (x2)]

[Riff 3]
|-------------------------------------------------------------------|
|-------------------------------------------------------------------|
|-------------------------------------------------------------------|
|-------------------------------------------------------------------|
|-2"..-5"-1"..-4"---------------------------------------7"------6"--|
|-----------------5"..-8"-4"..-7"-7"..-10"-6"..-9"-4"..----3"..-----|
|                                                                  |
|-------------------------------------------------------------------|
|-------------------------------------------------------------------|
|-------------------------------------------------------------------|
|-------------------------------------------------------7"------6"--|
|-7"..10"-6"..-9"----------------------------------4"..----3"..-----|
|-----------------5"..-8"-4"..-7"-7"..-10"-6"..-9"------------------|

-|------------------------------------------------|
-|------------------------------------------------|
-|------------------------------------------------|
-|------------------------------------------------|
-|-224433224433-7"..10"-6"..-9"-5"..-8"-4"..-7"---|
-|-002211002211-----------------------------------|
 | ............
-|----------------------------------------------|
-|----------------------------------------------|
-|----------------------------------------------|
-|----------------------------------------------|
-|-224433224433-4"..-7"-3"..-6"-----------------|
-|-002211002211-----------------7"..10"-6"..-9"-|
   ............

----------------------------------|
----------------------------------|
----------------------------------|
----------------------------------|
-----------------------7"------6"-|
-7"..-10"-6"..-9"-4"..----3"..----|
                                  |
----------------------------------|
----------------------------------|
----------------------------------|
-----------------------7"------6"-|
------------------4"..----3"..----|
-7"..-10"-6"..-9"-----------------|

[Riff 4]
|-----------------------------------------------|
|-----------------------------------------------|
|-----------------------------------------------|
|-----------------5"..--------------------------|
|-5"..----3"..---------7"-6"..-7"-224433224433--|
|------0"------0"-----------------002211002211--|
                                  ............

---------------------------------|
---------------------------------|
---------------------------------|
-----------------5"..------------|
-5"..----3"..---------7"-6"..-7"-|
------0"------0"-----------------|

[RIFF 3] [RIFF 4]

[Outro 2]
|--------------------------|
|--------------------------|
|--------------------------|
|--------------------------|
|-224433224433224433224433-|
|-002211002211002211002211-|
  ........................

[Outro 3]
|-------------------------------------------------------|
|-------------------------------------------------------|
|-------------------------------------------------------|
|-8"-5"-----------------------------------9"-6"-10"-7"--|
|-------7"-4"-6-5-7"-4"-------------7"-4"---------------|
|-------------4-3-------6"-3"-6"-3"---------------------|
|             . .                                      |
|-------------------------------------------------------|
|-------------------------------------------------------|
|-------------------------------------------------------|
|-------------------------------------------------------|
|-------------6-5---------------------------------------|
|-------------4-3---------------------------------------|
              . .

-|-------------------------------------------------------------|
-|-------------------------------------------------------------|
-|-------------------------------------------------------------|
-|-8"-5"-----------------------------------------6-------------|
-|-------7"-4"-6-5-7"-4"-------4"----------------4--4--7-6-4-6-|
-|-------------4-3-------6"-3"----2"-5"-4"-2"-4"----2--5-4-2-4-|
 |             . .                                             |
-|-------------------------------------------------------------|
-|-------------------------------------------------------------|
-|-------------------------------------------------------------|
-|-8"-5"-----------------------------------------6-------------|
-|-------7"-4"-6-5-------------4"----------------4--4--7-6-4-6-|
-|-------------4-3----------------2"-5"-4"-2"-4"----2--5-4-2-4-|
               . .

[Riff 5]
|-------------------------------------------------------|
|-------------------------------------------------------|
|-------------------------------------------------------|
|-8"-5"-----------------------------------9"-6"-10"-7"--|
|-------7"-4"-6-5-7"-4"-------------7"-4"---------------|
|-------------4-3-------6"-3"-6"-3"---------------------|
              . .

-|-------------------------------------------------------------|
-|-------------------------------------------------------------|
-|-------------------------------------------------------------|
-|-8"-5"-----------------------------------------6-------------|
-|-------7"-4"-6-5-7"-4"-------4"----------------4--4--7-6-4-6-|
-|-------------4-3-------6"-3"----2"-5"-4"-2"-4"----2--5-4-2-4-|
               . .

[Riff 6 (x4)]
|----------------------------------|
|----------------------------------|
|----------------------------------|
|-7-----6---------7----------------|
|-5-5-4-4-4-3-4-3-5-5-4-55---------|
|---3-2---2-1-2-1---3-2---22112211-|
    . .   . . . .   . . ..........

[RIFF 5 (x2)] [RIFF 6 (x4)]

[Riff 8a (x4)]
||----------------------------------------------||
||o--------------------------------------------o||
||----------------------------------------------||
||----------------------------------------------||
||o-----------------------------77556644-3-4-5-o||
||--7-4-7-4-4h7p4-6-3-6-3-3h6p3-55334422-1-2-3--||
    . . . .       . . . .       ........ . . .

[Riff 8b (x3)]
||----------------------------------------------||
||o--------------------------------------------o||
||----------------------------------------------||
||----------------------------------------------||
||o-7-4-7-4-4h7p4-6-3-6-3-3h6p3-77556644-3-4-5-o||
||------------------------------55334422-1-2-3--||
    . . . .       . . . .       ........ . . .

[Outro 4]
|--------------------------------------|
|--------------------------------------|
|--------------------------------------|
|--------------------------------------|
|-7-4-7-4-4h7p4-6-3-6-3-3h6p3-77556644-|
|-----------------------------55334422-|
  . . . .       . . . .       ........

[RIFF 2 (x3)] [RIFF 3] [RIFF 4]

[Ending]
|--------------------------|--------------------------|
|--------------------------|--------------------------|
|--------------------------|--------------------------|
|--------------------------|--------------------------|
|-224433------224433-------|-224433224433224433224433-|
|-002211------002211-------|-002211002211002211002211-|
| ......      ......       | ........................
|--------------------------|
|--------------------------|
|--------------------------|
|-------002211------002211-|

END OF SONG
Добавлено: 19.03.2012
Другие материалы по этой песне:
  • Аккорды и текст

Страница создана 19.03.2012
http://primanota.ru/deeds-of-flesh/medical-murder-chords.htm
Привет, Гость.
Предлагаем пройти революционный курс по гитаре.
Подарок от PrimaNota.Ru, забирай!