PrimaNota.ru - самый крупный в мире бесплатный архив песенных текстов, аккордов, табулатур и нот


Deeds Of Flesh - Mark Of The Legion - текст песни, таба, видео

Регистрация Запомнить меня
Войти через:  Facebook Google Twitter Vk Yandex Mail.ru

Deeds Of Flesh - Mark Of The Legion - текст песни, таба, видео

Печатать
Просмотров: 155
                   Artist: Deeds Of Flesh   
Album: Mark Of The Legion   
Song: Mark Of The Legion
Transcribed by:ben chaffins
Tune guitars Down One Whole Step (DGCFAD)
==============================================================================
Note: This song is pretty tough to play. Enjoy
==============================================================================


.  - palm mute           /  - slide up to     ah - Artificial harmonics
\  - slide down to       ~  - vibrato         __ - Tremolo pick
h  - hammer on           b  - Bend                       \
p  - pull off            Suffixes for bend                \
t  - tap                 f  - full bend    h - half bend   \ - Dive with bar
ph - pinched harmonic    q  - quarter bend t - tap bend
*  - see comment         ^  - Hold bend    r release bend  /
x  - Staccato            ~  - vibrato bend                / - Raise with bar
,  - slight palm mute    () - ghost note, sustained note /
"  - tremolo note        <> - Trill


Intro: Battle Effects



Riff 1 A both guitars                  B
|------------------------------------|-------------------------------------|
|------------------------------------|-------------------------------------|
|------------------------------------|-------------------------------------|
|-5--5-6-5---------------------------|-5--5-7-5----------------------------|
|-5--5-6-5---------------------------|-5--5-7-5-77777777-5--------6666-----|2x
|-----------77777777-5-8888-77777777-|---------------------6666666----5555-|
  .  . . .  ________   ____ ________   .  . . . ________   _______________



Riff 2 A both guitars                  B
|------------------------------------|---------------------------------|
|------------------------------------|---------------------------------|
|------------------------------------|---------------------------------|
|-5--5-6-5---------------------------|-5--5-7-5------------------------|
|-5--5-6-5---------------------------|-5--5-7-5-77777777-5--------6666-|
|-----------77777777-5-8888-77777777-|---------------------6666666-----|
  .  . . .  ________   ____ ________   .  . . . ________   ___________



Riff 3 both guitars
|-----------------------------------------------------------------|
|-----------------------------------------------------------------|
|-----------------------------------------------------------------|
|-----------------------------------------------------------------|
|----------------44444-33333-22222-----3--------------------------|
|-5555-0000-3333-------------------0-0---4444-5555-4444-1111-2222-|
  ____ ____ ____ _____ _____ _____ . .   ____ ____ ____ ____ ____



Riff 4 guitar one
|-----------------------------------------------------------------|
|-----------------------------------------------------------------|
|-----------------------------------------------------------------|
|-----------------------------------------------------------------|
|-------------------------3333-2222------4444-5555-4444-1111-2222-|
|-5555-0000-3333-2222-0-0------------0-0--------------------------|
| ____ ____ ____ ____ . . ____ ____  . . ____ ____ ____ ____ ____
|
|      guitar two
|-----------------------------------------------------------------|
|-----------------------------------------------------------------|
|-----------------------------------------------------------------|
|-------------------------3333-2222-------------------------------|
|----------------------------------------4444-5555-4444-----------|
|-5555-0000-3333-2222-0-0------------0-0----------------1111-2222-|
  ____ ____ ____ ____ . . ____ ____  . . ____ ____ ____ ____ ____


Repeat
Riff 3
Riff 4


Riff 5 A both guitars
|--------------------------------------|
|--------------------------------------|
|--------------------------------------|
|-----5"-----------------5"------------|3x
|-6-5----5-----------6-5----5----------|
|-4-3----3-222222222-4-3----3-11111111-|
  . . .  . _________ . . .  . ________


Riff 5 B
|----------|
|----------|
|----------|
|-----5"---|
|-6-5----5-|
|-4-3----3-|
  . . .  .


Repeat
Riff 1 2x
Riff 2
Riff 3
Riff 4
Riff 3
Riff 4


Riff 6  guitar one
|--------------------------------------------------------|
|----------------------------------------3333-4-33333333-|
|-22222222----------------2222-5555-4444-----------------|
|----------3333-2222-------------------------------------|
|--------------------0000--------------------------------|
|--------------------------------------------------------|
| ________ ____ ____ ____ ____ ____ ____ ____   ________
|
|        guitar two
|--------------------------------------------------------|
|--------------------------------------------------------|
|-22222222-------------------------------2222-3-22222222-|
|----------3333-2222------2222-5555-4444-----------------|
|--------------------0000--------------------------------|
|--------------------------------------------------------|
  ________ ____ ____ ____ ____ ____ ____ ____   ________



Riff 7 both guitars
|---------------------------------------------------------|
|---------------------------------------------------------|
|---------------------------------------------------------|
|-3333-2222-----------------------------------------------|
|-----------1111-0000-7777-8888-555578888-7777------8-7---|
|----------------------------------------------5555-6-5-5-|
  ____ ____ ____ ____ ____ ____ _________ ____ ____ . .



Repeat
Riff 6
Riff 7


Riff 8 both guitars
|-------------------------------------------------------------------|
|-------------------------------------------------------------------|
|-------------------------------------------------------------------|
|-5"-------------5"-6"-5"-3"-6"-5"-------------5"-6"-5"-3"-6"-5"-3"-|
|----3"-6"-5"-3"-------------------3"-6"-5"-3"----------------------|
|-------------------------------------------------------------------|


Riff 9 guitar one
|-------------------------------------------------------------------|
|-------------------------------------------------------------------|
|-------------------------------------------------------------------|
|-5"-------------5"-6"-5"-3"-6"-5"-------------5"-6"-5"-3"-6"-5"-3"-|
|----3"-6"-5"-3"-------------------3"-6"-5"-3"----------------------|
|-------------------------------------------------------------------|
|
|      guitar two
|-------------------------------------------------------------------|
|-------------------------------------------------------------------|
|-4"-------------4"-5"-4"-2"-5"-4"-------------4"-5"-4"-2"-5"-4"-2"-|
|----2"-5"-4"-2"-------------------2"-5"-4"-2"----------------------|
|-------------------------------------------------------------------|
|-------------------------------------------------------------------|


Riff 10 both guitars
|-------------------------------------------------------------------|
|-------------------------------------------------------------------|
|-------------------------------------------------------------------|
|-------------------------------------------------------------------|
|-5"-------------5"-6"-5"-3"-6"-5"-------------5"-6"-5"-3"-6"-5"-3"-|
|----3"-6"-5"-3"-------------------3"-6"-5"-3"----------------------|


Riff 11 guitar one
|-------------------------------------------------------------------|
|-------------------------------------------------------------------|
|-------------------------------------------------------------------|
|-------------------------------------------------------------------|
|-5"-------------5"-6"-5"-3"-6"-5"-------------5"-6"-5"-3"-6"-5"-3"-|
|----3"-6"-5"-3"-------------------3"-6"-5"-3"----------------------|
|
|
|-------------------------------------------------------------------|
|-------------------------------------------------------------------|
|-------------------------------------------------------------------|
|-5"-------------5"-6"-5"-3"-6"-5"-------------5"-6"-5"-3"-6"-5"-3"-|
|----3"-6"-5"-3"-------------------3"-6"-5"-3"----------------------|
|-------------------------------------------------------------------|


Repeat
Riff 5 a 2x


Riff 12 both guitars
|--------------------------------------|
|--------------------------------------|
|--------------------------------------|
|-----5"-----------------5"------------|2x
|-6-5----5-555555555-6-5----5-44444444-|
|-4-3----3-----------4-3----3----------|
  . . .  . _________ . . .  . ________

Repeat
Riff 5 B



Riff 13 guitar one
|---------------------------------------|
|---------------------------------------|
|---------------------------------------|
|-55555555-7777-------------------------|
|---------------55555555-7777-----------|
|-----------------------------6666-5555-|
| ________ ____ ________ ____ ____ ____
| ........ .... ........ .... .... ....
|       guitar two
|---------------------------------------|
|---------------------------------------|
|---------------------------------------|
|-55555555-7777-------------------------|
|---------------55555555-7777-6666-5555-|
|---------------------------------------|
  ________ ____ ________ ____ ____ ____
  ........ .... ........ .... .... ....



Riff 14 both guitars
|----------------------------------------------------------------------|
|----------------------------------------------------------------------|
|----------------------------------------------------------------------|
|-----------------------------5-6-5-6--------------------------5-6-5-6-|2x
|-5--5-6-5--5--ah-5--5--6-5-5---------5--5-6-5--5--4--5--6-5-5---------|
|-3--3-4-3--3--3--3--3--4-3-3---------3--3-4-3--3--2--3--4-3-3---------|
  .  . . .  .     .  .  . . . . . . . .  . . .  .     .  . . . . . . .


Riff 15 guitar one
|-------------------------------------------------|
|-------------------------------------------------|
|-------------------------------------------------|
|-------------------------------------------------|
|---------6-5---------8-7---------6-5---------6-5-|
|-5-5-5-5-----7-7-7-7-----5-5-5-5-----7-7-7-7-----|
| . . . . . . . . . . . . . . . . . . . . . . . .
|       guitar two                                 4x
|-------------------------------------------------|
|-------------------------------------------------|
|-------------------------------------------------|
|---------5-3---------7-5---------5-3---------5-3-|
|-4-4-4-4-----6-6-6-6-----4-4-4-4-----6-6-6-6-----|
|-------------------------------------------------|
  . . . . . . . . . . . . . . . . . . . . . . . .


Repeat
Riff 13
Riff 14 2x
Riff 6
Riff 7
Riff 6
Riff 7
Riff 8
Riff 9
Riff 10
Riff 11
Riff 5 A 2x
Riff 12 2x
Riff 5 B



The end.
      
Добавлено: 23.02.2012
Другие материалы по этой песне:
  • Аккорды и текст

Страница создана 23.02.2012
http://primanota.ru/deeds-of-flesh/mark-of-the-legion-chords.htm
Привет, Гость.
Предлагаем пройти революционный курс по гитаре.
Подарок от PrimaNota.Ru, забирай!