PrimaNota.ru - самый крупный в мире бесплатный архив песенных текстов, аккордов, табулатур и нот


Deeds Of Flesh - Lustmord - текст песни, таба, видео

Регистрация Запомнить меня
Войти через:  Facebook Google Twitter Vk Yandex Mail.ru

Deeds Of Flesh - Lustmord - текст песни, таба, видео

Печатать
Просмотров: 144
                    
          

DEEDS OF FLESH - "LUSTMORD"
from the ridiculously technical PATH OF THE WEAKENING album
tabber ben chaffins
Note I didn't include the song structure just because I feel it is unnecessary. I never
use them on other peoples' tabs and I figure if you really want to learn the song right
you'll listen to it while you learn it.

. = palm mute
p = pull off
h = hammer on


I believe this is in "D".




INTRO
|-----------------|
|-----------------|
|-----------------|
|---------4-----3-|
|-5-----3---3-2---|
|---3-2-----------|
  . . . . . . . .

RIFF 1                           RIFF 1A
|-------------------------------|---------------------------------|
|-------------------------------|---------------------------------|
|-------------------------------|---------------------------------|
|-----------------------4-----3-|---------7-----6-6-----5-4-----3-|
|-4-----3-6-----4-5-------3-3---|-4-----3---6-6-----5-5-----3-3---|
|---3-3-----5-5-----4-4---------|---3-3---------------------------|
  . . . . . . . . . . . . . . .   . . . . . . . . . . . . . . . . 

RIFF 2
|--------------------------------------|
|--------------------------------------|
|--------------------------------------|
|--------------------------------------|
|-------------------------------555333-|
|-888333555777777777888333555777-------|
  ....................................

RIFF 3                      RIFF 3A
|--------------------------|-----------------------|
|--------------------------|-----------------------|
|--------------------------|-----------------------|
|-666----------------------|-----------------------|
|----444555------333222----|-5p22224p11113p0000----|
|----------333222------111-|-------------------444-|
  ........................     ....  ....  .......

RIFF 4                                   END1  END2 END3
|---------------------------------------|-----|----|----|
|---------------------------------------|-----|----|----|
|---------------------------------------|-----|----|----|
|---3333-------------------2222---------|-----|----|----|
|-0-----0000000000000000-0--------------|-5p4-|-55-|----|
|------------------------------44443333-|-----|----|-11-|
  . .................... . ............         ..   ..

RIFF 4A
|---------------------------------------|
|---------------------------------------|
|---------------------------------------|
|---7777-------------------6666---------|
|-0-----0000000000000000-0--------------|
|------------------------------44443333-|
  . .................... . ............

RIFF 5
|--------------------------------------------|
|--------------------------------------------|
|--------------------------------------------|
|-444------333-----------222-6p5-----111-5p4-|
|----222555---000444-222---------111---------|
|--------------------------------------------|
  .................. ... ...     ... ...

RIFF 6
|-----------------------------------------------------|
|-----------------------------------------------------|
|-----------------------------------------------------|
|----------888777888---------------------------888----|
|-------------------555444------------333333----------|
|-666555666---------------665333555666------665---333-|
  ...................................................

RIFF 7
|---------------------------------------------------------------------------|
|---------------------------------------------------------------------------|
|---------------------------------------------------------------------------|
|-777----------------------------555----------------------------5-----3-----|
|----555---999666----------3-3-4----333---777444----------2-1-2---2-2-------|
|-------777------111-0-1-3-------------555------111-3-2-2---------------2-1-|
  .................. . . . . . . .................. . . . . . . . . . . . .

RIFF 8
|--------------------------|
|--------------------------|
|--------------------------|
|--------------------------|
|-888---666---777---444----|
|----555---333---555---111-|
  ........................
Добавлено: 06.07.2012
Другие материалы по этой песне:
  • Аккорды и текст

Страница создана 16.06.2012
http://primanota.ru/deeds-of-flesh/lustmord-chords.htm
Привет, Гость.
Предлагаем пройти революционный курс по гитаре.
Подарок от PrimaNota.Ru, забирай!