PrimaNota.ru - самый крупный в мире бесплатный архив песенных текстов, аккордов, табулатур и нот


Deeds Of Flesh - Indigenous To The Appalling (Mutinous Human) - текст песни, таба, видео

Регистрация Запомнить меня
Войти через:  Facebook Google Twitter Vk Yandex Mail.ru

Deeds Of Flesh - Indigenous To The Appalling (Mutinous Human) - текст песни, таба, видео

Печатать
Просмотров: 88
--- DEEDS OF FLESH ---
                  "Indigenous To The Appaling (Mutinous Human)"
                     From album: "Path Of The Weakening"



                            TABULATURE LEGEND:
                   " - tremolo             h - hammer on
                   ~ - vibrato             \ - slide down
                   p - pull off            / - slide down
                  tr - tremolo picking     ^ - pinch harmonics
                   = - sustained note      b - bend string
                p.m. - palm muting         t - tapping

Tuning is D [D, G, C, F, A, D]

[Riff 1]
-|-----------------------------------------------[x2]--|
-|-----------------------------------------------------|
-|-----------------------------------------------------|
-|-----------------------------------------------------|
-|-5"------------------5"----5"--6"..------4---4-3-5---|
-|----5"-6"5"-4"-1"-0"----5"--4"-------4-5---5-----5---|
 |                                     . . . . . .    |
-|-----------------------------------------------[x2]--|
-|-----------------------------------------------------|
-|-----------------------------------------------------|
-|-----------------------------------------------------|
-|-5"------------------5"----5"--6"..------4---4-3-5---|
-|----5"-6"5"-4"-1"-0"----5"--4"-------4-5---5-----5---|
                                       . . . . . . .

-|----------------------------------------------------|
-|----------------------------------------------------|
-|----------------------------------------------------|
-|----------------------------------------------------|
-|-5"------------------5"----5"--6"..------4---4-3-5--|
-|----5"-6"5"-4"-1"-0"----5"--4"-------4-5---5-----5--|
 |                                     . . . . . .    |
-|----------------------------------------------------|
-|----------------------------------------------------|
-|----------------------------------------------------|
-|----------------------------------------------------|
-|-2"-0"---------------2"-0"-2"---3"..-----4---4-3-5--|
-|-------3"2"-1"-1"-0"---------1"------4-5---5-----5--|
                                       . . . . . .

[Riff 2 (x2)]
||--------------------------------------------|--------------------|
||o-------------------------------------------|--------------------|
||--------------------------------------------|--------------------|
||--------------------------------------------|--------------------|
||o-------7"..-5"8"-7"---2"-3"-5"-3"----3"-2"-|-------7"..-5"8"-5"-|
||--0"-7"--------------0-------------2"-------|-0"-7"--------------|

--------------------||
-------------------o||
--------------------||
--------------------||
----3"-2"-5"-2"----o||
-2"-------------1"--||

[RIFF 1]

[Riff 3]
|--------------------------------------------------------[x3]--|
|--------------------------------------------------------------|
|--------------------------------------------------------------|
|-5"..-------6"..-----------6-5-6"..-------5"..-----------6-5--|
|------5-6-5------7-6-5-6-5-4-3------6-7-6------7-6-5-6-5-4-3--|
|------3-4-3------5-4-3-4-3----------4-5-4------5-4-3-4-3------|
       . . .      . . . . . . .      . . .      . . . . . . .

-|-----------------------------------------------------------|
-|-----------------------------------------------------------|
-|-----------------------------------------------------------|
-|-5"..-------6"..-----------6-5-6"..-------5"..-----------6-|
-|------5-6-5------7-6-5-6-5-4-3------6-7-6------7-6-5-6-5-4-|
-|------3-4-3------5-4-3-4-3----------4-5-4------5-4-3-4-3---|
        . . .      . . . . . . .      . . .      . . . . . .

[Riff 4 (x3)]
||-------------------------------------------|
||o------------------------------------------|
||-------------------------------------------|
||---------------------------------3"--------|
||o----------3"2"-5"-------2"1"--------------|
||--0"-1"-3"---------3"-2"------1"----5"-4"--|
|                                           |
||-------------------------------------------|
||o------------------------------------------|
||-------------------------------------------|
||---------------------------------3"--------|
||o----------3"2"-5"-------2"1"--------------|
||--0"-1"-3"---------3"-2"------1"----5"-4"--|

-|---------------------------------------------------------||
-|--------------------------------------------------------o||
-|---------------------------------------------------------||
-|------------------------------------------8~--7~---------||
-|-7"----6"-----------9-8-----8-7-6-7-6-7-6---------------o||
-|----4"----3"-2"-777-----666---------4-5-4-6~--5~--0-1-2--||
                  ... . . ... . . . . . . .         . . .   |
-|---------------------------------------------------------||
-|--------------------------------------------------------o||
-|------------------------------------------6~--5~---------||
-|---------------------------------------------------------||
-|-7"----9"-----------9-8-----8-7-6-7-6-7-6-4~--3~--------o||
-|----7"----6"-5"-777-----666---------4-5-4---------0-1-2--||
                  ... . . ... . . . . . . .         . . .

[Riff 5a (x2)]
||------------------------------------------------------|
||o-----------------------------------------------------|
||------------------------------------------------------|
||---------------------5"--4"------4---5-4--------------|
||o------3"--2------5"-----------5---2-----5-4-1"-------|
||--2"--------3-5--------------2-------------------1"---|
|           . . .              . . . . . . . .         |
||------------------------------------------------------|
||o-----------------------------------------------------|
||------------------------------------------------------|
||---------------------5"--4"------4---5-4--------------|
||o------3"--2------5"-----------5---2-----5-4-1"-------|
||--2"--------3-5--------------2-------------------1"---|
            . . .              . . . . . . . .

-|------------------------------------------------------------||
-|-----------------------------------------------------------o||
-|------------------------------------------------------------||
-|--------------------5"-4"-----0--4"----5"-4"----------------||
-|-----3"--2------5"---------2"-5"----2"-------5"-4"-1"------o||
-|-2"--------3-5-----------------------------------------1"---||
 |         . . .                                               |
-|------------------------------------------------------------||
-|-----------------------------------------------------------o||
-|------------------------------------------------------------||
-|--------------------5"-4"-----0--4"----5"-4"----------------||
-|-----3"--2------5"---------2"-5"----2"-------5"-4"-1"------o||
-|-2"--------3-5-----------------------------------------1"---||
           . . .

[Riff 5b]
|-----------------------------------------------------|
|-----------------------------------------------------|
|-----------------------------------------------------|
|--------------------5"--4"------4---5-4--------------|
|-----3"--2------5"------------5---2-----5-4-1"-------|
|-2"--------3-5--------------2-------------------1"---|
|          . . .             . . . . . . . .         |
|-----------------------------------------------------|
|-----------------------------------------------------|
|-----------------------------------------------------|
|--------------------5"--4"------7---8-7--------------|
|-----3"--2------5"------------8---5-----8-5-1"-------|
|-2"--------3-5--------------5-------------------1"---|
          . . .              . . . . . . . .

-|-----------------------------------------------------------|
-|-----------------------------------------------------------|
-|-----------------------------------------------------------|
-|--------------------5"-4"--------4"----5"-4"---------------|
-|-----3"--2------5"---------2"-5"----2"-------5"-4"-1"------|
-|-2"--------3-5-----------------------------------------1"--|
 |         . . .                                             |
-|-----------------------------------------------------------|
-|-----------------------------------------------------------|
-|-----------------------------------------------------------|
-|--------------------5"-4"--------4"----5"-4"---------------|
-|-----3"--2------5"---------2"-5"----2"-------5"-4"-1"------|
-|-2"--------3-5-----------------------------------------1"--|
           . . .


[RIFF 3]

[Riff 6 (x2)]
||----------------------------------------------------------------------------|
||o---------------------------------------------------------------------------|
||---------------------------5"-----------------------------------------------|
||------------------5"----------2"----------3"--------2---3---4~--------------|
||o-3-2-4-3-443-554----4"-6"-------2"----5"----5"-111---1---2----3~-^---------|
||--1-0-2-1---------------------------3"----------------------------4~-6~-5~--|
|   . . . . ... ...                               ... . . . .                |
||----------------------------------------------------------------------------|
||o---------------------------------------------------------------------------|
||---------------------------5"-----------------------------------------------|
||------------------5"----------2"----------3"--------2---3---4~--------------|
||o-3-2-4-3-443-554----4"-6"-------2"----5"----5"-111---1---2----3~-----------|
||--1-0-2-1---------------------------3"----------------------------4~-6~-5~--|
    . . . . ... ...                               ... . . . .

-|---------------------------------------------[x2]-|--||
-|--------------------------------------------------|-o||
-|--------------------------------------------------|--||
-|-------4"---------443-332-------------------------|--||
-|-6-5-4----2-4-332---------443-332-221-2"-3"-2"-1"-|-o||
-|-4-3-2--------------------------------------------|--||
 | . . .    . . ... ... ... ... ... ...             |   |
-|---------------------------------------------[x2]-|--||
-|--------------------------------------------------|-o||
-|--------------------------------------------------|--||
-|-------4"---------443-332-------------------------|--||
-|-6-5-4----2-4-332---------443-332-221-2"-3"-2"-1"-|-o||
-|-4-3-2--------------------------------------------|--||
   . . .    . . ... ... ... ... ... ...

[RIFF 6] [RIFF 2 (x2)] [RIFF 4 (x3)] [RIFF 5 (x4)]

END OF SONG
Добавлено: 08.08.2013
Вам также может быть интересно:
Другие материалы по этой песне:
  • Аккорды и текст

Страница создана 31.05.2012
http://primanota.ru/deeds-of-flesh/indigenous-to-the-appalling-mutinous-human-chords.htm
Привет, Гость.
Предлагаем пройти революционный курс по гитаре.
Подарок от PrimaNota.Ru, забирай!