PrimaNota.ru - самый крупный в мире бесплатный архив песенных текстов, аккордов, табулатур и нот


Deeds Of Flesh - Human Trophies - текст песни, таба, видео

Регистрация Запомнить меня
Войти через:  Facebook Google Twitter Vk Yandex Mail.ru

Deeds Of Flesh - Human Trophies - текст песни, таба, видео

Печатать
Просмотров: 97
Band:  Deeds Of Flesh
Album: Reduced to Ashes
Song:  Human Trophies


.  - palm mute           /  - slide up to
\  - slide down to       ~  - vibrato
h  - hammer on           b  - Bend  e.g.: 10b(12) = bend 1 tone
p  - pull off            pb - pre-Bend
t  - tap                 dv - dive (tremolo bar)
p.h. pinched harmonic
*  - commentary          r - release bend
x  - Stuccatto           ~  - vibrato bend
,  - slight palm mute    () - ghost note, sustained note
"  - tremolo note        <> - Trill

Most of the times, two (-) are equal to one 8th note (if else, 
i'll indicate it) to lighten the reading of the tabs.
The numbers above the measures are the time signatures.

As always, I'm not claiming that this is THE perfect tab. It's 
simply my interpretation of the song, or how I like to play it.

Of course, any suggestions, improvements or comments are welcome. 

By the way, the first guitar is panned in the right speaker and the
second guitar is panned in the left speaker.
----------------------------------------------------------------------
HUMAN TROPHIES
Tuning D G C F A D

INTRO (play once)
T =120
Above : guitar 1
Below : guitar 2
(this applies for everytime there are two tracks)
  6/4
||------------------------------------------------||
||------------------------------------------------||
||------------------------------------------------||
||---------------------------------------(2)-(1)--||
||2---3---4---4---2---2-------------------3---2---||
||0---1---2---2---0---0-------------------3---2---||
||.   .   .   .   .   .                   .   .   ||
||                                                ||
||------------------------------------------------||
||------------------------------------------------||
||------------------------------------------------||
||-----------------------(4)-(4)-(5)-(4)----------||
||------------------------5---5---6---5-----------||
||------------------------5---5---6---5-----------||

  6/4                                              3/4
||------------------------------------------------|-------------------------||
||------------------------------------------------|-------------------------||
||------------------------------------------------|-------------------------||
||---------------------------------------(2)-(1)--|(1)-(2)-(2)-(2)-(1)-P.H.-||
||2---3---4---4---2---2-------------------3---2---|-2---3---3---3---2---4---||
||0---1---2---2---0---0-------------------3---2---|-2---3---3---3---2-------||
||.   .   .   .   .   .                           |                         ||
||                                                |                         ||
||------------------------------------------------|-------------------------||
||------------------------------------------------|-------------------------||
||------------------------------------------------|-------------------------||
||-----------------------(4)-(4)-(5)-(4)-(2)-(1)--|(1)-(2)-(2)-(2)-(1)-P.H.-||
||------------------------5---5---6---5---3---2---|-2---3---3---3---2---4---||
||------------------------5---5---6---5---3---2---|-2---3---3---3---2-------||


RIFF 1 (play 2x)
T =120
Guitars 1 & 2
  6/4                                                     
||------------------------------------------------|
||------------------------------------------------|
||------------------------------------------------|
||-----------------------(4)-(4)-(5)-(4)-(2)-(1)--|
||2---3---4---4---2---2---5---5---6---5---3---2---|
||0---1---2---2---0---0---5---5---6---5---3---2---|
  .   .   .   .   .   .                   .   .
                                                   3/4
||------------------------------------------------|-------------------------||
||------------------------------------------------|-------------------------||
||------------------------------------------------|-------------------------||
||-----------------------(4)-(4)-(5)-(4)-(2)-(1)--|(1)-(2)-(2)-(2)-(1)-P.H.-||
||2---3---4---4---2---2---5---5---6---5---3---2---|-2---3---3---3---2---4---||
||0---1---2---2---0---0---5---5---6---5---3---2---|-2---3---3---3---2-------||
  .   .   .   .   .   .


RIFF 1a (play 2x)
T=120
  6/4
||-------------------------------------------------|
||-------------------------------------------------|
||-------------------------------------------------|
||------------------------4444444455554444(2)-(1)--|
||2---3---4---4---2---2--------------------3---2---|
||0---1---2---2---0---0--------------------3---2---|
||.   .   .   .   .   .   ................         |
||                                                 |
||-------------------------------------------------|
||-------------------------------------------------|
||-------------------------------------------------|
||----------------------------------------(2)-(1)--|
||2---3---4---4---2---2--------------------3---2---|
||0---1---2---2---0---0---5555555566665555-3---2---|
  .   .   .   .   .   .   ................   

                                                    3/4
|-------------------------------------------------|-------------------------||
|-------------------------------------------------|-------------------------||
|-------------------------------------------------|-------------------------||
|------------------------4444444455554444(2)-(1)--|(1)-(2)-(2)-(2)-(1)-P.H.-||
|2---3---4---4---2---2--------------------3---2---|-2---3---3---3---2---4---||
|0---1---2---2---0---0--------------------3---2---|-2---3---3---3---2-------||
|.   .   .   .   .   .   ................         |                         ||
|                                                 |                         ||
|-------------------------------------------------|-------------------------||
|-------------------------------------------------|-------------------------||
|-------------------------------------------------|-------------------------||
|----------------------------------------(2)-(1)--|(1)-(2)-(2)-(2)-(1)-P.H.-||
|2---3---4---4---2---2--------------------3---2---|-2---3---3---3---2---4---||
|0---1---2---2---0---0---5555555566665555-3---2---|-2---3---3---3---2-------||
 .   .   .   .   .   .   ................


BRIDGE 1 (play 1x)
T=120
  7/8                          4/4
||----------------------------|--------------------------------||
||----------------------------|--------------------------------||
||----------------------------|--------------------------------||
||4-----------------------3---|--------------------------------||
||2-----------4-----------1---|------------------------2---2-2-||
||----0-3-2-0-2---0-3-2-0-----|------------------------0---0-0-||
||    . . . .     . . . .     |                        .   . . ||
||                            |                                ||
||----------------------------|--------------------------------||
||----------------------------|--------------------------------||
||----------------------------|--------------------------------||
||4-----------------------3---|--------------------------------||
||2-----------4-----------1---|------------------------2---2-2-||
||----0-3-2-0-2---0-3-2-0-----|3333666622224444555511110---0-0-||
      . . . .     . . . .                              .   . .


RIFF 2 (play 2x)
T=120
GUitars 1 & 2:
  4/4
||--------------------------------||
||--------------------------------||
||--------------------------------||
||--------------------------------||
||------------------------2---2-2-||
||3333666622224444555511110---0-0-||
                          .   . .


BRIDGE 2 (play 1x)
T=120
Guitars 1 & 2:
  7/8
||----------------------------||
||----------------------------||
||----------------------------||
||3-----------------------4---||
||1-----------4-----------2---||
||----0-3-2-0-2---0-3-2-0-----||
      . . . .     . . . .       


RIFF 2a (play 2x)
T=120
GUitars 2 plays RIFF 2
Guitar 1 plays that :
  4/4
||--------------------------------||
||--------------------------------||
||--------------------------------||
||--------------------------------||
||2222555500002222444400002---2-2-||
||------------------------4---4-4-||
                          .   . .


Play "BRIDGE 1" once (first bar only).
Then play RIFF 2 (2x)
Then...


BRIDGE 3 (play once)
T=100
These are all triplets (8th note).
  4/4
||------------------------------------||
||------------------------------------||
||------------------------------------||
||5--5--------4-----------------------||
||3--3--2--4--2-----------------------||
||------0--2--------------------------||
||      .  .                          ||
||                                    ||
||------------------------------------||
||------------------------------------||
||------------------------------------||
||5--5--------4-----------------------||
||3--3--2--4--2--2--4--5--7--6--4--5--||
||------0--2-----0--2--3--5--4--2--3--||
        .  .     .  .  .  .  .  .  .


RIFF 3 (play 3x)
T=100
Guitars 1 & 2:
These are all triplets (8th note).
  4/4
||------------------------------------||
||------------------------------------||
||------------------------------------||
||5--5--------4-----------------------||
||3--3--2--4--2--2--4--5--7--6--4--5--||
||------0--2-----0--2--3--5--4--2--3--||
        .  .     .  .  .  .  .  .  .


RIFF 4 (play once)   
T=140
Guitars 1 & 2:
These aren't triplets anymore.
  4/4
||--------------------------------|--------------------------------||
||--------------------------------|--------------------------------||
||--------------------------------|--------------------------------||
||--------------------------------|--------------------------------||
||----------------44444444--------|33333333--------22222222--------||
||555555555---6-----------4---5---|--------4---5-----------22222222||
          .   .           .   .            .   .


Then play RIFF 3 (4x).


RIFF 5 (play 2x)
T=140
Guitars 1 & 2:
  6/4                                          4/4
||--------------------------------------------|----------------------------||
||--------------------------------------------|----------------------------||
||--------------------------------------------|----------------------------||
||--------------------------------------------|----------------------------||
||2-2-2---2---2-------------------------------|33335555666655555555--------||
||0-0-0---0---0---5555777788887777777700000000|--------------------33330000||
  . . .   .   .

  5/4                                      4/4
||----------------------------------------|----------------------------||
||----------------------------------------|----------------------------||
||----------------------------*-----------|----------------------------||
||----------------3333222200002222--------|5---6-------3---4-----------||
||2-2-2---2---2-------------------44440000|3---4-------1---2---3-3-3---||
||0-0-0---0---0---------------------------|--------------------1-1-1---||
  . . .   .   .                            .           .       . . .

                              *2nd time, play those four 2's 
                               one string higher (G string...).


Then play RIFF 3 (4x)
Then play RIFF 5 (2x)


RIFF 6 (play 2x)
T=140
Guitars 1 & 2:
  4/4
||--------------------------------|--------------------------------|
||--------------------------------|--------------------------------|
||--------------------------------|--------------------------------|
||----2-2-------------------------|--------------------------------|
||2-------4-4-5---2-2-----2-2-5-5-|5-5---------2-2-2-2-0-0---------|
||0-----------3-------3-3---------|----4-4-4-4-------------2-2-2-2-|
  .   . . . . .   . . . . . . . .  . . . . . . . . . . . . . . . . 
                                                                             
|--------------------------------|--------------------------------|
|--------------------------------|--------------------------------|
|--------------------------------|--------------------------------|
|--------------------------------|--------------------------------|
|------------7---6---4---3---4---|4---5---33333333444444444---5---|
|1-1-4-4-1-1-5---4---2---1---2---|2---3-------------------2---3---|
 . . . . . . .   .   .   .   .    .   .                   .   .

|--------------------------------||
|--------------------------------||
|--------------------------------||
|--------------------------------||
|555555556666666666667777--------||
|------------------------0-------||


RIFF 6a (play 1x)
T=140
Here, I'm not sure about both part. It's hard to tell.
  4/4
||--------------------------------|--------------------------------||
||--------------------------------|--------------------------------||
||--------------------------------|--------------------------------||
||4---7-7-4-4-----2-2-----2---5-5-|2-2-----------------------------||
||2-----------5-------3-3---------|----3---4-4-1-1-2---4-----------||
||--------------------------------|----------------0---2-----------||
||.   . . . . .   . . . . .   . .  . . .   . . . . .   .           ||
||                                                                 ||
||--------------------------------|--------------------------------||
||--------------------------------|--------------------------------||
||--------------------------------|--------------------------------||
||----2-2-------------------------|--------------------------------||
||2-------4-4-----2-2-----2---5-5-|2-2-------------2---4-----------||
||0-----------3-------3-3---------|----1---4-4-1-1-0---2-----------||
  .   . . . . .   . . . . .   . .  . . .   . . . . .   . 


RIFF 6b (play 1x)
T=140
Guitars 1 & 2:
  4/4                         *after a while he plays the 4th fret instead
||--------------------------------|--------------------------------|
||--------------------------------|--------------------------------|
||--------------------------------|--------------------------------|
||--------------------------------|------------------------4-4-----|
||2-------4---2---3---4---3-3-*---|--------4-4-----5---4-------3-3-|
||0---1-1-2---0---1---2-------3-3-|3-3-2-2-----3-3-3---2-----------|
  .   . . .   .   .   .                            .   .

 2/4
|----------------||
|----------------||
|----------------||
|----3-3---------||
|2-2-----3---2---||
|--------1---0---||
         .   .


Then play RIFF 6a (1x)
Then play RIFF 6b (1x)
Then play RIFF 6a (1x)
Then play RIFF 6b (1x)
Then play BRIDGE 1 (1st bar only) (1x)
Then play RIFF 2a (2x)
Then play BRIDGE 2 (1x)
Then play RIFF 2 (2x)
Then play BRIDGE 1 (1st bar only) (1x)
Then play RIFF 2a (2x)
Then play BRIDGE 2 (1x)
Then...


RIFF 7 (play 4x)
T=100
Guitars 1 & 2:
  5/4
||----------------------------------------||
||----------------------------------------|| Every first time you play
||------------2---4-----------------------|| this riff, play a B5 instead
||*-------2-3---3-2----------P.H.---------|| (move the powerchord one
||4---2-3-------------4---5-5-4---2---3---|| string higher)
||2-------------------2-----------0---1---||
  .   . . . . . . .   .           .   .


Then link with...
RIFF 1 (2x) and RIFF 1a (2x)
Then RIFF 7 (4x)
Then RIFF 3 again and again...
Добавлено: 21.10.2013
Другие материалы по этой песне:
  • Аккорды и текст

Страница создана 13.03.2012
http://primanota.ru/deeds-of-flesh/human-trophies-chords.htm
Привет, Гость.
Предлагаем пройти революционный курс по гитаре.
Подарок от PrimaNota.Ru, забирай!