PrimaNota.ru - самый крупный в мире бесплатный архив песенных текстов, аккордов, табулатур и нот


Deeds Of Flesh - Fullfilled In Warfare - таба, видео

Регистрация Запомнить меня
Войти через:  Facebook Google Twitter Vk Yandex Mail.ru

Deeds Of Flesh - Fullfilled In Warfare - таба, видео

Печатать
Просмотров: 99
Artist: Deeds Of Flesh
Album: Mark Of The Legion
Song: Fullfilled in warfare
Transcribed by:Alvaro Ramirez
Email me for any comments or corrections:lazyguitarist@gmail.com
Tune guitars Down one whole step (DGCFAD)
===============================================================
Note: One of my favorite songs from this band. Very easy song.
===============================================================

.  - palm mute           /  - slide up to     ah - Artificial harmonics
\  - slide down to       ~  - vibrato         __ - Tremolo pick
h  - hammer on           b  - Bend
p  - pull off            Suffixes for bend
t  - tap                 f  - full bend    h - half bend
ph - pinched harmonic    q  - quarter bend t - tap bend
*  - see comment         ^  - Hold bend    r release bend
x  - Staccato            ~  - vibrato bend
,  - slight palm mute    () - ghost note, sustained note
"  - tremolo note        <> - Trill


Riff 1 both guitars                                        Outro 1
|-----------------------------------------------------|  |-------------|
|-----------------------------------------------------|  |-------------|
|-5555------------------------------------------------|  |-5555--------|
|------4444-------------------------------------------|2x|------4444---|
|----------------3333-----------4444-3333-------------|  |-------------|
|-----------2222------2222-3333-----------4444-3333-2-|  |-----------2-|
  ____ ____ ____ ____ ____ ____ ____ ____ ____ ____        ____ ____


Riff 2 both guitars
|-----------------------------------------------------|
|-4444------------------------------------------------|
|------2222-------------------------------------------|
|-----------------------------------------------------|
|----------------3333-----------4444-3333-------------|
|-----------2222------2222-3333-----------4444-3333-2-|
  ____ ____ ____ ____ ____ ____ ____ ____ ____ ____ 


Riff 3 guitar one
|-----------------------------------------------------|
|-3333------------------------------------------------|
|------1111-------------------------------------------|
|----------------2222-----------3333-2222-------------|
|-----------1111------1111-2222-----------3333-2222-1-|
|-----------------------------------------------------|
| ____ ____ ____ ____ ____ ____ ____ ____ ____ ____
|      guitar two
|-----------------------------------------------------|
|-3333------------------------------------------------|
|------1111-------------------------------------------|
|-----------------------------------------------------|
|----------------3333-----------4444-3333-------------|
|-----------2222------2222-3333-----------4444-3333-2-|
  ____ ____ ____ ____ ____ ____ ____ ____ ____ ____

Repeat
Riff 2
Outro 1

Bass solo.

Riff 4 both guitars 
|-------------------------|
|-------------------------|I'm not sure 
|-------------------------|about this riff.
|-------------------------|
|-4-----------4-----------|
|---3-2-3-2-3---3-2-3-2-3-|
  . . . . . . . . . . . . 

Riff 5 guitar one
|-------------------------------------------------|
|-------------------------------------------------|
|------------------------2222-3333-0000-1111------|
|-222222222222-4444-5555---------------------3333-|
|-------------------------------------------------|
|-------------------------------------------------|
| ____________ ____ ____ ____ ____ ____ ____ ____
|      guitar two
|-------------------------------------------------|
|-------------------------------------------------|
|-------------------------------------------------|
|-------------------------------------------------|
|-777777777777-6666-5555-2222-3333-0000-1111------|
|--------------------------------------------3333-|
  ____________ ____ ____ ____ ____ ____ ____ ____ 

Riff 6 guitar one
|-------------------------------------------------|
|-------------------------------------------------|
|-------------------------------------------------|
|-------------------------------------------------|
|-777777777777-6666-5555-2222-3333-0000-1111------|
|--------------------------------------------3333-|
| ____________ ____ ____ ____ ____ ____ ____ ____ 
|      guitar two
|-------------------------------------------------|
|-------------------------------------------------|
|------------------------2222-3333-0000-1111------|
|-222222222222-4444-5555---------------------3333-|
|-------------------------------------------------|
|-------------------------------------------------|
| ____________ ____ ____ ____ ____ ____ ____ ____


Repeat
Riff 5
Riff 6

Riff 7 both guitars
|-----------------------------|
|-----------------------------|
|-----------------------------|
|-----------------------------|
|-8-7--ah--7-7-6-5--8-7-6--ah-|
|-6-5--3---5-5-4-3--6-5-4--3--|
  . .      . . . .  . . .

Riff 8 both guitars
|----------------------------------------------------------------|
|----------------------------------------------------------------|
|----------------------------------------------------------------|
|-----------777777777777-----------------------------------------|
|-----7-7-8-------------------7777-----------6666-----------5555-|
|-5-5--------------------5555------5555-4444------4444-3333------|
  . . . . . ____________ ____ ____ ____ ____ ____ ____ ____ ____


Riff 9 guitar one                          Outro 2
|---------------------------------------|---------------------|
|---------------------------------------|---------------------|
|---------------------------------------|---------------------|
|---------------------------------------|------5555------4444-|
|-------333333333333--------------------|-3333------2222------|
|-1-1-1--------------1-1-4444-3333-1111-|---------------------|
| . . . ____________ . . ____ ____ ____   ____ ____ ____ ____
|      guitar two                          Outro 2
|---------------------------------------|---------------------|
|---------------------------------------|---------------------|
|---------------------------------------|------4444------3333-|
|---------------------------------------|-2222------1111------|
|-------333333333333--------------------|---------------------|
|-1-1-1--------------1-1-4444-3333-1111-|---------------------|
  . . . ____________ . . ____ ____ ____   ____ ____ ____ ____

Repeat
Riff 7
Riff 8
Riff 9 (no outro)

Riff 10 both guitars
|-------------------------------------|
|-------------------------------------|
|-------------------------------------|
|-----------------------------------6-|
|-3-3--5-4--4-4-6--ah-5-5-7-4--8-7----|
|-1-1--3-2--2-2-4--3--3-3-5-4--6-5----|
  . .  . .  . . .     . . . .  . .

Riff 11 both guitars
|--------------------------------------------------------------|
|--------------------------------------------------------------|
|--------------------------------------------------------------|
|-222222222222-----------0-2-444444444444-333333-000000-222222-|
|--------------------------------------------------------------|
|--------------000-0-1-2---------------------------------------|
  ____________ ... . . . . . ____________ ______ ______ ______

|----------------------------------|
|----------------------------------|
|----------------------------------|
|-----------0-2-555555555555-3333--|
|----------------------------------|
|-000-0-1-2------------------------|
  ... . . . . . ____________ ____

Outro 3 both guitars
|-------------|
|-------------|
|-------------|
|-8-5---------|
|-----6-5-7-5-|
|-------------|
  . . . . . .

Repeat
Riff 11
Outro 3 2x
Riff 10
Riff 11 
Outro 3
Riff 11
Outro 3 2x
Riff 10 2x

Riff 12 both guitars
|-------------------------------------|
|-------------------------------------|
|-------------------------------------|
|------------------ah---------------6-|
|-3-3--5-4--4-4-6--3--5-5-7-4--8-7----|
|-1-1--3-2--2-2-4-----3-3-5-4--6-5----|
  . .  . .  . . .     . . . .  . .

Riff 13 both guitars (the 11 are ones not elevens)
|------------------------------------|
|------------------------------------|
|------------------------------------|
|------------------------------------|
|----------------------------888-999-|
|-0000000000011111111111-777---------|
  ______________________ ... ... ...

Repeat
Riff 10 
Riff 13
Riff 10
Riff 5
Riff 6
Riff 5
Riff 6
Riff 1 2x
Riff 2
Riff 11
outro 3
Riff 11
Outro 3 2x

Riff 14 both guitars
|---------------------------------------------------------------------|
|---------------------------------------------------------------------|
|---------------------------------------------------------------------|
|-----7"-----8"-------------------------------------------------------|
|-------------------7-------444-333333333333------------------3h4-----|
|-555----555----555-----555-------------------2-2-333-2-2-222-----555-|
  ...    ...    ...     ... ... ____________  . . ... . . ...     ...

Repeat
Riff 8
Riff 9 (no outro)
Riff 14

Riff 15 guitar one
|----------------------------------------------------------------|
|----------------------------------------------------------------|
|----------------------------------------------------------------|
|-----------777777777777-----------------------------------------|
|-----7-7-8-------------------7777-----------6666-----------5555-|
|-5-5--------------------5555------5555-4444------4444-3333------|
| . . . . . ____________ ____ ____ ____ ____ ____ ____ ____ ____
|       guitar two
|----------------------------------------------------------------|
|----------------------------------------------------------------|
|-----------777777777777-----------------------------------------|
|-----7-7-8-------------------7777-----------6666-----------5555-|
|-5-5--------------------5555------5555-4444------4444-3333------|
|----------------------------------------------------------------|
  . . . . . ____________ ____ ____ ____ ____ ____ ____ ____ ____

Repeat 
Riff 9
Riff 14 2x

Riff 16
|-----|
|-----|
|-----|
|-----|
|-2-2-|
|-0-0-|


The end...
Добавлено: 06.07.2012
Другие материалы по этой песне:
  • Аккорды и текст

Страница создана 06.07.2012
http://primanota.ru/deeds-of-flesh/fullfilled-in-warfare-chords.htm
Привет, Гость.
Предлагаем пройти революционный курс по гитаре.
Подарок от PrimaNota.Ru, забирай!