PrimaNota.ru - самый крупный в мире бесплатный архив песенных текстов, аккордов, табулатур и нот


Deeds Of Flesh - Drink The Blood - таба, видео

Регистрация Запомнить меня
Войти через:  Facebook Google Twitter Vk Yandex Mail.ru

Deeds Of Flesh - Drink The Blood - таба, видео

Печатать
Просмотров: 133
Уроки эстрадного вокала в Санкт-Петербурге
                           --- DEEDS OF FLESH ---
                              "Drink The Blood"
                     From album: "Mark Of The Legion"
                     Copyright Unique Leader 2001
                     Transcribed by: ben chaffins

                            TABULATURE LEGEND:
                   " - tremolo             h - hammer on
                   ~ - vibrato             \ - slide down
                   p - pull off            / - slide down
                  tr - tremolo picking     ^ - pinch harmonics
                   = - sustained note      b - bend string
                p.m. - palm muting         t - tapping

Tuning is D [D, G, C, F, A, D]

[Part 1a (x2)]
-|----------------------------------------|---------------------------------|
-|----------------------------------------|---------------------------------|
-|----------------------------------------|---------------------------------|
-|----------------------------------5--6--|---------------------------------|
-|-------------------5--6--5--------3--4--|-5--6------7-------------3-------|
-|-0--5--6--0--2--3-----------6--5--3--4--|-------5-------8---5--4------3---|
  tr............................... .  .   tr...............................

[Part 2a] /both gutiars/
-|-------------------------------------------|
-|-------------------------------------------|
-|-------------------------------------------|
-|-------------------------------------------|
-|-5--2-5---2---5--2--5---2------------------|
-|----------------------------1--2--7--4-5---|
  tr.........................................

[Part 2b]
-|-------------------------------------------|
-|-------------------------------------------|
-|-------------------------------------------|
-|-------------------------------------------|
-|-5--2-5---2---5--2--5---2------------------|
-|----------------------------1--2--7--4-5---|
 |tr.........................................|
-|-------------------------------------------|
-|-------------------------------------------|
-|-------------------------------------------|
-|-------------------------------------------|
-|-------------------------------------------|
-|-7--4-7---4---7--4--7---4---1--2--7--4-5---|
  tr.........................................

[Part 3 (x4)]
-|-------------------------------------|
-|-------------------------------------|
-|-------------------------------------|
-|-------------------------------------|
-|-----6"7"-----6"5"-----5"4"-----4"3"-|
-|-333------333------333------333------|
   ...      ...      ...      ...

[PART 1 (x2)] [PART 2b(x2)] [PART 3 (x4)]

[Part 4]
-|--------------------------|--------------------------|
-|--------------------------|--------------------------|
-|--------------------------|--------------------------|
-|--------------------------|--------------------------|
-|-5555-----8"7"------6"5"--|-5555-----8"7"------6"----|
-|------5-5-------8"--------|------5-5-------8"----3"--|
 | .... . .                 | .... . .                 |
-|--------------------------|--------------------------|
-|--------------------------|--------------------------|
-|--------------------------|--------------------------|
-|--------------------------|--------------------------|
-|-5555-----8"7"------6"5"--|-5555-----8"7"------6"----|
-|------5-5-------8"--------|------5-5-------8"----3"--|
   .... . .                   .... . .

[Part 5]
-|-------------------------------------|-------------------------------------|
-|-------------------------------------|-------------------------------------|
-|-------------------------------------|-------------------------------------|
-|-------------------------------------|-------------------------------------|
-|-6-3-----6-3-7-4-----6-3-----6-3-7-4-|-8-----------7-----------8-----------|
-|-----6-3---------7-4-----6-3---------|---5-5-5-5-5---4-4-4-4-4---5-5-5-5-5-|
 | . . . . . . . . . . . . . . . . . . |   . . . . .   . . . . .   . . . . .
-|-------------------------------------|-------------------------------------|
-|-------------------------------------|-------------------------------------|
-|-------------------------------------|-------------------------------------|
-|-------------------------------------|-------------------------------------|
-|-6-3-----6-3-7-4-----6-3-----6-3-7-4-|-8-----------7-----------8-----------|
-|-----6-3---------7-4-----6-3---------|---5-5-5-5-5---4-4-4-4-4---5-5-5-5-5-|
   . . . . . . . . . . . . . . . . . .     . . . . .   . . . . .   . . . . .

----------------------------------------------|
----------------------------------------------|
----------------------------------------------|
-7--6--5--5-----------4-----------5-----------|
-5--4--3----2"......----1"......----2"......--|
-5--4--3--------------------------------------|
 .  .  .                                      |
----------------------------------------------|
----------------------------------------------|
----------------------------------------------|
-7--6--5--8-----------7-----------8-----------|
-5--4--3----5"......----4"......----5"......--|
-5--4--3--------------------------------------|
 .  .  .

[Outro]
-|-----------------------------|
-|-----------------------------|
-|-----------------------------|
-|-7--6--5---------------------|
-|-5--4--3------3--4--3--5--^--|
-|-5--4--3--0-0-1--2--1--3--4--|
   .  .  .  . . .  .  .  .

[Part 6 (x2)]
-|---------------------------------------------------------------|
-|---------------------------------------------------------------|
-|---------------------------------------------------------------|
-|-----------------------------------------------------------3h4-|
-|------------------------------2"----3-2------3-2---2-----------|
-|-1-2"--1-4"--1-2"4"3"-1-2"--1-----1-----3~-1-----1---3-1-1-----|
   .     .     .        .     .     .        . . . . . . . .

[PART 4] [PART 5] [PART 6 (x2)]

[Part 7 (x7)]
-|---------------------|
-|---------------------|
-|---------------------|
-|-----------------333-|
-|---3-2---2-----------|
-|-1-----1---3-1-1-----|
 | . . . . . . . . ... |
-|---------------------|
-|---------------------|
-|---------------------|
-|-----------------777-|
-|---7-6---6-----------|
-|-5-----5---7-5-5-----|
   . . . . . . . . ...

[Part 8 (x4)]
-|----------------------------------------------------------------------------|
-|----------------------------------------------------------------------------|
-|----------------------------------------------------------------------------|
-|----------5~----6~---------------------------------4455---------------------|
-|-2--3--4--5~----6~----5--4-----------66-3-77-4-3322---------------22524252--|
-|-0--1--2--3~-2--4~-3--3--2-66-3-77-4--------------------44746474------------|
   .  .  .     .     .  .  . .. . .. . .. . .. . ........

[Part 9a] /both guitars/
-|-------------------------------------------------|
-|-------------------------------------------------|
-|-------------------------------------------------|
-|-5-5-5-------------------------------------------|
-|-------6-6-6---------------4p3-------------------|
-|-------------6-6-6-5-5-5-3-----3-3-3-1-2p1-1-3p1-|
   . . . . . . . . . . . . .     . . . .     .

[Part 9b (x5)]
-|-------------------------------------------------|
-|-------------------------------------------------|
-|---5---------------------------------------------|
-|-5---5-------------------------------------------|
-|-------6-6-6---------------4p3-------------------|
-|-------------6-6-6-5-5-5-3-----3-3-3-1-2p1-1-3p1-|
 | . . . . . . . . . . . . .     . . . .     .     |
-|-------------------------------------------------|
-|-------------------------------------------------|
-|---5-5-------------------------------------------|
-|-5-----------------------------------------------|
-|-------6-6-6---------------4p3-------------------|
-|-------------6-6-6-5-5-5-3-----3-3-3-1-2p1-1-3p1-|
   . . . . . . . . . . . . .     . . . .     .

[Part 1b (x2)]
-|----------------------------------------|---------------------------------|
-|----------------------------------------|---------------------------------|
-|----------------------------------------|---------------------------------|
-|----------------------------------5--6--|---------------------------------|
-|-------------------5--6--5--------3--4--|-5--6------7-------------3-------|
-|-0--5--6--0--2--3-----------6--5--3--4--|-------5-------8---5--4------3---|
 |tr............................... .  .  |tr...............................|
-|----------------------------------------|---------------------------------|
-|----------------------------------------|---------------------------------|
-|----------------------------------------|---------------------------------|
-|----------------------------------5--6--|-----------5---------------------|
-|-------------------5--6--5--------3--4--|-5--6--3-------6---3--2--6-------|
-|-0--5--6--0--2--3-----------6--5--3--4--|-----------------------------6---|
  tr............................... .  .   tr...............................

[PART 3 (x4)] [PART 1b (x2)] [PART 3 (x4)] [PART 9b (x12)]

END OF SONG
Добавлено: 27.05.2012
Другие материалы по этой песне:
  • Аккорды и текст

Страница создана 27.05.2012
http://primanota.ru/deeds-of-flesh/drink-the-blood-chords.htm
Привет, Гость.
Предлагаем пройти революционный курс по гитаре.
Подарок от PrimaNota.Ru, забирай!